  0
SECTION
  2
HEADER
  9
$ACADVER
  1
AC1015
  9
$ACADMAINTVER
 70
     6
  9
$DWGCODEPAGE
  3
ANSI_932
  9
$INSBASE
 10
0.0
 20
0.0
 30
0.0
  9
$EXTMIN
 10
-87.5
 20
-341.21697
 30
0.0
  9
$EXTMAX
 10
326.18692
 20
123.02467
 30
0.0
  9
$LIMMIN
 10
-87.5
 20
-341.21697
  9
$LIMMAX
 10
326.18692
 20
123.02467
  9
$ORTHOMODE
 70
     0
  9
$REGENMODE
 70
     1
  9
$FILLMODE
 70
     1
  9
$QTEXTMODE
 70
     0
  9
$MIRRTEXT
 70
     1
  9
$LTSCALE
 40
1.0
  9
$ATTMODE
 70
     1
  9
$TEXTSIZE
 40
3.2
  9
$TRACEWID
 40
0.05
  9
$TEXTSTYLE
  7
MX_NOTE_STANDARD
  9
$CLAYER
  8
0
  9
$CELTYPE
  6
CONTINUOUS
  9
$CECOLOR
 62
   256
  9
$CELTSCALE
 40
1.0
  9
$DISPSILH
 70
     0
  9
$DIMSCALE
 40
1.0
  9
$DIMASZ
 40
2.5
  9
$DIMEXO
 40
0.5
  9
$DIMDLI
 40
3.75
  9
$DIMRND
 40
0.0
  9
$DIMDLE
 40
0.0
  9
$DIMEXE
 40
0.5
  9
$DIMTP
 40
0.0
  9
$DIMTM
 40
0.0
  9
$DIMTXT
 40
3.2
  9
$DIMCEN
 40
2.5
  9
$DIMTSZ
 40
0.0
  9
$DIMTOL
 70
     0
  9
$DIMLIM
 70
     0
  9
$DIMTIH
 70
     0
  9
$DIMTOH
 70
     0
  9
$DIMSE1
 70
     0
  9
$DIMSE2
 70
     0
  9
$DIMTAD
 70
     1
  9
$DIMZIN
 70
     8
  9
$DIMBLK
  1

  9
$DIMASO
 70
     1
  9
$DIMSHO
 70
     1
  9
$DIMPOST
  1

  9
$DIMAPOST
  1

  9
$DIMALT
 70
     0
  9
$DIMALTD
 70
     4
  9
$DIMALTF
 40
0.03937
  9
$DIMLFAC
 40
1.0
  9
$DIMTOFL
 70
     1
  9
$DIMTVP
 40
0.0
  9
$DIMTIX
 70
     0
  9
$DIMSOXD
 70
     0
  9
$DIMSAH
 70
     1
  9
$DIMBLK1
  1
_OPEN30
  9
$DIMBLK2
  1
_OPEN30
  9
$DIMSTYLE
  2
MXDIMSTYLE
  9
$DIMCLRD
 70
     0
  9
$DIMCLRE
 70
     0
  9
$DIMCLRT
 70
     0
  9
$DIMTFAC
 40
1.0
  9
$DIMGAP
 40
0.8
  9
$DIMJUST
 70
     0
  9
$DIMSD1
 70
     0
  9
$DIMSD2
 70
     0
  9
$DIMTOLJ
 70
     0
  9
$DIMTZIN
 70
     0
  9
$DIMALTZ
 70
     0
  9
$DIMALTTZ
 70
     0
  9
$DIMUPT
 70
     0
  9
$DIMDEC
 70
     2
  9
$DIMTDEC
 70
     2
  9
$DIMALTU
 70
     2
  9
$DIMALTTD
 70
     4
  9
$DIMTXSTY
  7
MX_NOTE_STANDARD
  9
$DIMAUNIT
 70
     0
  9
$DIMADEC
 70
     0
  9
$DIMALTRND
 40
0.0
  9
$DIMAZIN
 70
     0
  9
$DIMDSEP
 70
    46
  9
$DIMATFIT
 70
     3
  9
$DIMFRAC
 70
     0
  9
$DIMLDRBLK
  1
_OPEN30
  9
$DIMLUNIT
 70
     2
  9
$DIMLWD
 70
    -2
  9
$DIMLWE
 70
    -2
  9
$DIMTMOVE
 70
     0
  9
$LUNITS
 70
     2
  9
$LUPREC
 70
     4
  9
$SKETCHINC
 40
0.1
  9
$FILLETRAD
 40
0.0
  9
$AUNITS
 70
     0
  9
$AUPREC
 70
     0
  9
$MENU
  1
acad
  9
$ELEVATION
 40
0.0
  9
$PELEVATION
 40
0.0
  9
$THICKNESS
 40
0.0
  9
$LIMCHECK
 70
     0
  9
$CHAMFERA
 40
0.0
  9
$CHAMFERB
 40
0.0
  9
$CHAMFERC
 40
0.0
  9
$CHAMFERD
 40
0.0
  9
$SKPOLY
 70
     0
  9
$TDCREATE
 40
2455911.601134259
  9
$TDUCREATE
 40
0.000000000
  9
$TDUPDATE
 40
2455911.601134259
  9
$TDUUPDATE
 40
0.000000000
  9
$TDINDWG
 40
0.0000000000
  9
$TDUSRTIMER
 40
0.0000000000
  9
$USRTIMER
 70
     1
  9
$ANGBASE
 50
0.0
  9
$ANGDIR
 70
     0
  9
$PDMODE
 70
     0
  9
$PDSIZE
 40
0.0
  9
$PLINEWID
 40
0.0
  9
$SPLFRAME
 70
     0
  9
$SPLINETYPE
 70
     6
  9
$SPLINESEGS
 70
     8
  9
$HANDSEED
  5
31A
  9
$SURFTAB1
 70
     6
  9
$SURFTAB2
 70
     6
  9
$SURFTYPE
 70
     6
  9
$SURFU
 70
     6
  9
$SURFV
 70
     6
  9
$UCSBASE
  2

  9
$UCSNAME
  2

  9
$UCSORG
 10
0.0
 20
0.0
 30
0.0
  9
$UCSXDIR
 10
1.0
 20
0.0
 30
0.0
  9
$UCSYDIR
 10
0.0
 20
1.0
 30
0.0
  9
$UCSORTHOREF
  2

  9
$UCSORTHOVIEW
 70
     0
  9
$UCSORGTOP
 10
0.0
 20
0.0
 30
0.0
  9
$UCSORGBOTTOM
 10
0.0
 20
0.0
 30
0.0
  9
$UCSORGLEFT
 10
0.0
 20
0.0
 30
0.0
  9
$UCSORGRIGHT
 10
0.0
 20
0.0
 30
0.0
  9
$UCSORGFRONT
 10
0.0
 20
0.0
 30
0.0
  9
$UCSORGBACK
 10
0.0
 20
0.0
 30
0.0
  9
$PUCSBASE
  2

  9
$PUCSNAME
  2

  9
$PUCSORG
 10
0.0
 20
0.0
 30
0.0
  9
$PUCSXDIR
 10
1.0
 20
0.0
 30
0.0
  9
$PUCSYDIR
 10
0.0
 20
1.0
 30
0.0
  9
$PUCSORTHOREF
  2

  9
$PUCSORTHOVIEW
 70
     0
  9
$PUCSORGTOP
 10
0.0
 20
0.0
 30
0.0
  9
$PUCSORGBOTTOM
 10
0.0
 20
0.0
 30
0.0
  9
$PUCSORGLEFT
 10
0.0
 20
0.0
 30
0.0
  9
$PUCSORGRIGHT
 10
0.0
 20
0.0
 30
0.0
  9
$PUCSORGFRONT
 10
0.0
 20
0.0
 30
0.0
  9
$PUCSORGBACK
 10
0.0
 20
0.0
 30
0.0
  9
$USERI1
 70
     0
  9
$USERI2
 70
     0
  9
$USERI3
 70
     0
  9
$USERI4
 70
     0
  9
$USERI5
 70
     0
  9
$USERR1
 40
0.0
  9
$USERR2
 40
0.0
  9
$USERR3
 40
0.0
  9
$USERR4
 40
0.0
  9
$USERR5
 40
0.0
  9
$WORLDVIEW
 70
     1
  9
$SHADEDGE
 70
     3
  9
$SHADEDIF
 70
    70
  9
$TILEMODE
 70
     1
  9
$MAXACTVP
 70
    16
  9
$PINSBASE
 10
0.0
 20
0.0
 30
0.0
  9
$PLIMCHECK
 70
     0
  9
$PEXTMIN
 10
1.000000E+20
 20
1.000000E+20
 30
1.000000E+20
  9
$PEXTMAX
 10
-1.000000E+20
 20
-1.000000E+20
 30
-1.000000E+20
  9
$PLIMMIN
 10
0.0
 20
0.0
  9
$PLIMMAX
 10
12.0
 20
9.0
  9
$UNITMODE
 70
     0
  9
$VISRETAIN
 70
     0
  9
$PLINEGEN
 70
     1
  9
$PSLTSCALE
 70
     0
  9
$TREEDEPTH
 70
  3020
  9
$CMLSTYLE
  2
Standard
  9
$CMLJUST
 70
     0
  9
$CMLSCALE
 40
1.0
  9
$PROXYGRAPHICS
 70
     0
  9
$MEASUREMENT
 70
     1
  9
$CELWEIGHT
370
     0
  9
$ENDCAPS
280
     0
  9
$JOINSTYLE
280
     0
  9
$LWDISPLAY
290
     0
  9
$INSUNITS
 70
     0
  9
$HYPERLINKBASE
  1

  9
$STYLESHEET
  1

  9
$XEDIT
290
     1
  9
$CEPSNTYPE
380
     0
  9
$PSTYLEMODE
290
     1
  9
$FINGERPRINTGUID
  2

  9
$VERSIONGUID
  2

  9
$EXTNAMES
290
     1
  9
$PSVPSCALE
 40
0.0
  0
ENDSEC
  0
SECTION
  2
CLASSES
  0
CLASS
  1
LWPOLYLINE
  2
AcDbPolyline
  3
AutoCAD 2000
 90
        0
280
     0
281
     1
  0
CLASS
  1
IMAGE
  2
AcDbRasterImage
  3
ISM
 90
      127
280
     0
281
     1
  0
CLASS
  1
OLE2FRAME
  2
AcDbOle2Frame
  3
AutoCAD 2000
 90
        0
280
     0
281
     1
  0
CLASS
  1
HATCH
  2
AcDbHatch
  3
AutoCAD 2000
 90
        0
280
     0
281
     1
  0
CLASS
  1
DICTIONARYVAR
  2
AcDbDictionaryVar
  3
AutoCAD 2000
 90
        0
280
     0
281
     0
  0
CLASS
  1
RASTERVARIABLES
  2
AcDbRasterVariables
  3
ISM
 90
        0
280
     0
281
     0
  0
CLASS
  1
IMAGEDEF
  2
AcDbRasterImageDef
  3
ISM
 90
        0
280
     0
281
     0
  0
CLASS
  1
IMAGEDEF_REACTOR
  2
AcDbRasterImageDefReactor
  3
ISM
 90
        1
280
     0
281
     0
  0
CLASS
  1
IDBUFFER
  2
AcDbIdBuffer
  3
AutoCAD 2000
 90
        0
280
     0
281
     0
  0
CLASS
  1
SPATIAL_FILTER
  2
AcDbSpatialFilter
  3
AutoCAD 2000
 90
        0
280
     0
281
     0
  0
CLASS
  1
XRECORD
  2
AcDbXrecord
  3
AutoCAD 2000
 90
        0
280
     0
281
     0
  0
CLASS
  1
SORTENTSTABLE
  2
AcDbSortentsTable
  3
AutoCAD 2000
 90
        0
280
     0
281
     0
  0
CLASS
  1
LAYER_INDEX
  2
AcDbLayerIndex
  3
AutoCAD 2000
 90
        0
280
     0
281
     0
  0
CLASS
  1
SPATIAL_INDEX
  2
AcDbSpatialIndex
  3
AutoCAD 2000
 90
        0
280
     0
281
     0
  0
CLASS
  1
OBJECT_PTR
  2
CAseDLPNTableRecord
  3
"ASE-LPNTableRecord"
 90
        1
280
     0
281
     0
  0
CLASS
  1
LAYOUT
  2
AcDbLayout
  3
AutoCAD 2000
 90
        0
280
     0
281
     0
  0
CLASS
  1
PLOTSETTINGS
  2
AcDbPlotSettings
  3
AutoCAD 2000
 90
        0
280
     0
281
     0
  0
CLASS
  1
ACDBDICTIONARYWDFLT
  2
AcDbDictionaryWithDefault
  3
AutoCAD 2000
 90
        0
280
     0
281
     0
  0
CLASS
  1
ACDBPLACEHOLDER
  2
AcDbPlaceHolder
  3
AutoCAD 2000
 90
        0
280
     0
281
     0
  0
ENDSEC
  0
SECTION
  2
TABLES
  0
TABLE
  2
VPORT
  5
7
100
AcDbSymbolTable
 70
     1
  0
VPORT
  5
15
100
AcDbSymbolTableRecord
100
AcDbViewportTableRecord
  2
*ACTIVE
 70
     0
 10
0.0
 20
0.0
 11
1.0
 21
1.0
 12
119.34346
 22
-109.09615
 13
0.0
 23
0.0
 14
1.0
 24
1.0
 15
0.0
 25
0.0
 16
0.0
 26
0.0
 36
1.0
 17
0.0
 27
0.0
 37
0.0
 40
468.884057
 41
1.732051
 42
50.0
 43
0.0
 44
0.0
 50
0.0
 51
0.0
 71
     0
 72
   100
 73
     1
 74
     1
 75
     0
 76
     0
 77
     0
 78
     0
281
     0
 65
     0
110
0.0
120
0.0
130
0.0
111
1.0
121
0.0
131
0.0
112
0.0
122
1.0
132
0.0
345
0
346
0
 79
     0
146
0.0
  0
ENDTAB
  0
TABLE
  2
LTYPE
  5
4
100
AcDbSymbolTable
 70
     5
  0
LTYPE
  5
11
100
AcDbSymbolTableRecord
100
AcDbLinetypeTableRecord
  2
BYBLOCK
 70
    64
  3

 72
    65
 73
     0
 40
0.0
  0
LTYPE
  5
12
100
AcDbSymbolTableRecord
100
AcDbLinetypeTableRecord
  2
BYLAYER
 70
    64
  3

 72
    65
 73
     0
 40
0.0
  0
LTYPE
  5
13
100
AcDbSymbolTableRecord
100
AcDbLinetypeTableRecord
  2
CONTINUOUS
 70
    64
  3
Solid line
 72
    65
 73
     0
 40
0.0
  0
LTYPE
  5
3A
100
AcDbSymbolTableRecord
100
AcDbLinetypeTableRecord
  2
CENTER
 70
    64
  3
Center ____ _ ____ _ ____ _ ____ _ ____ _ ____
 72
    65
 73
     4
 40
50.8
 49
31.75
 74
     0
 49
-6.35
 74
     0
 49
6.35
 74
     0
 49
-6.35
 74
     0
  0
LTYPE
  5
2C3
100
AcDbSymbolTableRecord
100
AcDbLinetypeTableRecord
  2
DASHED
 70
    64
  3
Dashed __ __ __ __ __ __ __ __ __ __ __ __ __ _
 72
    65
 73
     2
 40
19.05
 49
12.7
 74
     0
 49
-6.35
 74
     0
  0
ENDTAB
  0
TABLE
  2
LAYER
  5
2
100
AcDbSymbolTable
 70
    17
  0
LAYER
  5
14
100
AcDbSymbolTableRecord
100
AcDbLayerTableRecord
  2
0
 70
     0
 62
     3
  6
CONTINUOUS
290
     1
370
    -3
390
1D
  0
LAYER
  5
23
100
AcDbSymbolTableRecord
100
AcDbLayerTableRecord
  2
1
 70
     0
 62
     7
  6
CONTINUOUS
290
     1
370
    -3
390
1D
  0
LAYER
  5
24
100
AcDbSymbolTableRecord
100
AcDbLayerTableRecord
  2
10
 70
     0
 62
     4
  6
CONTINUOUS
290
     1
370
    -3
390
1D
  0
LAYER
  5
25
100
AcDbSymbolTableRecord
100
AcDbLayerTableRecord
  2
11
 70
     0
 62
     3
  6
CONTINUOUS
290
     1
370
    -3
390
1D
  0
LAYER
  5
26
100
AcDbSymbolTableRecord
100
AcDbLayerTableRecord
  2
12
 70
     0
 62
     7
  6
CONTINUOUS
290
     1
370
    -3
390
1D
  0
LAYER
  5
27
100
AcDbSymbolTableRecord
100
AcDbLayerTableRecord
  2
13
 70
     0
 62
     3
  6
CONTINUOUS
290
     1
370
    -3
390
1D
  0
LAYER
  5
28
100
AcDbSymbolTableRecord
100
AcDbLayerTableRecord
  2
14
 70
     0
 62
     5
  6
CONTINUOUS
290
     1
370
    -3
390
1D
  0
LAYER
  5
29
100
AcDbSymbolTableRecord
100
AcDbLayerTableRecord
  2
15
 70
     0
 62
     4
  6
CONTINUOUS
290
     1
370
    -3
390
1D
  0
LAYER
  5
2A
100
AcDbSymbolTableRecord
100
AcDbLayerTableRecord
  2
2
 70
     0
 62
     3
  6
CONTINUOUS
290
     1
370
    -3
390
1D
  0
LAYER
  5
2B
100
AcDbSymbolTableRecord
100
AcDbLayerTableRecord
  2
3
 70
     0
 62
     5
  6
CONTINUOUS
290
     1
370
    -3
390
1D
  0
LAYER
  5
2C
100
AcDbSymbolTableRecord
100
AcDbLayerTableRecord
  2
4
 70
     0
 62
     4
  6
CONTINUOUS
290
     1
370
    -3
390
1D
  0
LAYER
  5
2D
100
AcDbSymbolTableRecord
100
AcDbLayerTableRecord
  2
5
 70
     0
 62
     3
  6
CONTINUOUS
290
     1
370
    -3
390
1D
  0
LAYER
  5
2E
100
AcDbSymbolTableRecord
100
AcDbLayerTableRecord
  2
6
 70
     0
 62
     3
  6
CONTINUOUS
290
     1
370
    -3
390
1D
  0
LAYER
  5
2F
100
AcDbSymbolTableRecord
100
AcDbLayerTableRecord
  2
7
 70
     0
 62
     7
  6
CONTINUOUS
290
     1
370
    -3
390
1D
  0
LAYER
  5
30
100
AcDbSymbolTableRecord
100
AcDbLayerTableRecord
  2
8
 70
     0
 62
     3
  6
CONTINUOUS
290
     1
370
    -3
390
1D
  0
LAYER
  5
31
100
AcDbSymbolTableRecord
100
AcDbLayerTableRecord
  2
9
 70
     0
 62
     5
  6
CONTINUOUS
290
     1
370
    -3
390
1D
  0
LAYER
  5
32
100
AcDbSymbolTableRecord
100
AcDbLayerTableRecord
  2
DEFPOINTS
 70
     0
 62
     7
  6
CONTINUOUS
290
     0
370
    -3
390
1D
  0
ENDTAB
  0
TABLE
  2
STYLE
  5
3
100
AcDbSymbolTable
 70
     1
  0
STYLE
  5
17
100
AcDbSymbolTableRecord
100
AcDbTextStyleTableRecord
  2
MX_NOTE_STANDARD
 70
     0
 40
0.0
 41
1.0
 50
0.0
 71
     0
 42
3.2
  3
txt.shx
  4
extfont.shx
  0
ENDTAB
  0
TABLE
  2
VIEW
  5
5
100
AcDbSymbolTable
 70
     0
  0
ENDTAB
  0
TABLE
  2
UCS
  5
6
100
AcDbSymbolTable
 70
     0
  0
ENDTAB
  0
TABLE
  2
APPID
  5
8
100
AcDbSymbolTable
 70
     1
  0
APPID
  5
16
100
AcDbSymbolTableRecord
100
AcDbRegAppTableRecord
  2
ACAD
 70
     0
  0
ENDTAB
  0
TABLE
  2
DIMSTYLE
  5
9
100
AcDbSymbolTable
 70
     1
100
AcDbDimStyleTable
 71
     0
  0
DIMSTYLE
105
18
100
AcDbSymbolTableRecord
100
AcDbDimStyleTableRecord
  2
MXDIMSTYLE
 70
     0
  3

  4

 40
1.0
 41
2.5
 42
0.5
 43
3.75
 44
0.5
 45
0.0
 46
0.0
 47
0.0
 48
0.0
 71
     0
 72
     0
 73
     0
 74
     0
 75
     0
 76
     0
 77
     1
 78
     8
 79
     0
140
3.2
141
2.5
142
0.0
143
0.03937
144
1.0
145
0.0
146
1.0
147
0.8
148
0.0
170
     0
171
     4
172
     1
173
     1
174
     0
175
     0
176
     0
177
     0
178
     0
179
     0
271
     2
272
     2
273
     2
274
     4
275
     0
276
     0
277
     2
278
    46
279
     0
280
     0
281
     0
282
     0
283
     0
284
     0
285
     0
286
     0
288
     0
289
     3
340
17
341
33
342
0
343
33
344
33
371
    -2
372
    -2
  0
ENDTAB
  0
TABLE
  2
BLOCK_RECORD
  5
1
100
AcDbSymbolTable
 70
     1
  0
BLOCK_RECORD
  5
A
100
AcDbSymbolTableRecord
100
AcDbBlockTableRecord
  2
*MODEL_SPACE
340
20
  0
BLOCK_RECORD
  5
B
100
AcDbSymbolTableRecord
100
AcDbBlockTableRecord
  2
*PAPER_SPACE
340
21
  0
BLOCK_RECORD
  5
33
100
AcDbSymbolTableRecord
100
AcDbBlockTableRecord
  2
_OPEN30
340
0
  0
ENDTAB
  0
ENDSEC
  0
SECTION
  2
BLOCKS
  0
BLOCK
  5
D
100
AcDbEntity
  8
0
390
0
100
AcDbBlockBegin
  2
*MODEL_SPACE
 70
     0
 10
0.0
 20
0.0
 30
0.0
  3
*MODEL_SPACE
  1

  0
ENDBLK
  5
E
100
AcDbEntity
  8
0
390
0
100
AcDbBlockEnd
  0
BLOCK
  5
F
100
AcDbEntity
 67
     1
  8
0
390
0
100
AcDbBlockBegin
  2
*PAPER_SPACE
 70
     0
 10
0.0
 20
0.0
 30
0.0
  3
*PAPER_SPACE
  1

  0
ENDBLK
  5
10
100
AcDbEntity
 67
     1
  8
0
390
0
100
AcDbBlockEnd
  0
BLOCK
  5
34
100
AcDbEntity
  8
0
370
    -2
390
0
  6
ByBlock
 62
     0
100
AcDbBlockBegin
  2
_OPEN30
 70
     2
 10
0.0
 20
0.0
 30
0.0
  3
_OPEN30
  1

  0
LINE
  5
35
100
AcDbEntity
  8
0
370
    -2
390
0
  6
ByBlock
 62
     0
100
AcDbLine
 10
-1.0
 20
0.267949
 30
0.0
 11
0.0
 21
0.0
 31
0.0
  0
LINE
  5
36
100
AcDbEntity
  8
0
370
    -2
390
0
  6
ByBlock
 62
     0
100
AcDbLine
 10
0.0
 20
0.0
 30
0.0
 11
-1.0
 21
-0.267949
 31
0.0
  0
LINE
  5
37
100
AcDbEntity
  8
0
370
    -2
390
0
  6
ByBlock
 62
     0
100
AcDbLine
 10
0.0
 20
0.0
 30
0.0
 11
-1.0
 21
0.0
 31
0.0
  0
ENDBLK
  5
38
100
AcDbEntity
  8
0
370
    -2
390
0
  6
ByBlock
 62
     0
100
AcDbBlockEnd
  0
ENDSEC
  0
SECTION
  2
ENTITIES
  0
MTEXT
  5
39
100
AcDbEntity
  8
0
390
0
  6
CONTINUOUS
 62
     7
100
AcDbMText
 10
58.806406
 20
-156.36439
 30
0.0
 40
20.0
 41
0.0
 71
     4
 72
     1
  1
\W1.067;\A1;MLC1065C
 73
     1
 44
0.9
  0
LINE
  5
3B
100
AcDbEntity
  8
0
390
0
  6
CENTER
 62
     7
100
AcDbLine
 10
313.021051
 20
0.0
 30
0.0
 11
180.040024
 21
0.0
 31
0.0
  0
LINE
  5
3C
100
AcDbEntity
  8
0
390
0
  6
CONTINUOUS
 62
     3
100
AcDbLine
 10
228.277999
 20
-101.0
 30
0.0
 11
166.186905
 21
-101.0
 31
0.0
  0
LINE
  5
3D
100
AcDbEntity
  8
0
390
0
  6
CONTINUOUS
 62
     3
100
AcDbLine
 10
167.186905
 20
-92.0
 30
0.0
 11
325.18692
 21
-92.0
 31
0.0
  0
LINE
  5
3E
100
AcDbEntity
  8
0
390
0
  6
CONTINUOUS
 62
     3
100
AcDbLine
 10
178.68689
 20
56.0
 30
0.0
 11
313.68692
 21
56.0
 31
0.0
  0
LINE
  5
3F
100
AcDbEntity
  8
0
390
0
  6
CONTINUOUS
 62
     3
100
AcDbLine
 10
180.18689
 20
78.0
 30
0.0
 11
312.18692
 21
78.0
 31
0.0
  0
LINE
  5
40
100
AcDbEntity
  8
0
390
0
  6
CONTINUOUS
 62
     3
100
AcDbLine
 10
166.186905
 20
-93.0
 30
0.0
 11
166.186905
 21
-101.0
 31
0.0
  0
ARC
  5
41
100
AcDbEntity
  8
0
390
0
  6
CONTINUOUS
 62
     3
100
AcDbCircle
 10
167.186905
 20
-93.0
 30
0.0
 40
1.0
100
AcDbArc
 50
90.0
 51
180.0
  0
LINE
  5
42
100
AcDbEntity
  8
0
390
0
  6
CONTINUOUS
 62
     3
100
AcDbLine
 10
313.68692
 20
76.5
 30
0.0
 11
313.68692
 21
56.0
 31
0.0
  0
LINE
  5
43
100
AcDbEntity
  8
0
390
0
  6
CONTINUOUS
 62
     3
100
AcDbLine
 10
203.186905
 20
-87.0
 30
0.0
 11
203.186905
 21
-74.8
 31
0.0
  0
LINE
  5
44
100
AcDbEntity
  8
0
390
0
  6
CONTINUOUS
 62
     3
100
AcDbLine
 10
191.186905
 20
-104.5
 30
0.0
 11
214.9961
 21
-104.5
 31
0.0
  0
LINE
  5
45
100
AcDbEntity
  8
0
390
0
  6
CONTINUOUS
 62
     3
100
AcDbLine
 10
191.186905
 20
-101.0
 30
0.0
 11
191.186905
 21
-104.5
 31
0.0
  0
ARC
  5
46
100
AcDbEntity
  8
0
390
0
  6
CONTINUOUS
 62
     3
100
AcDbCircle
 10
198.186905
 20
-87.0
 30
0.0
 40
5.0
100
AcDbArc
 50
270.0
 51
0.0
  0
LINE
  5
47
100
AcDbEntity
  8
0
390
0
  6
CONTINUOUS
 62
     3
100
AcDbLine
 10
240.686905
 20
-123.25
 30
0.0
 11
240.686905
 21
-102.299988
 31
0.0
  0
LINE
  5
48
100
AcDbEntity
  8
0
390
0
  6
CONTINUOUS
 62
     3
100
AcDbLine
 10
240.686905
 20
-123.25
 30
0.0
 11
243.024649
 21
-123.25
 31
0.0
  0
LINE
  5
49
100
AcDbEntity
  8
0
390
0
  6
CONTINUOUS
 62
     3
100
AcDbLine
 10
241.436905
 20
-124.0
 30
0.0
 11
250.936905
 21
-124.0
 31
0.0
  0
LINE
  5
4A
100
AcDbEntity
  8
0
390
0
  6
CONTINUOUS
 62
     3
100
AcDbLine
 10
240.686905
 20
-123.25
 30
0.0
 11
241.436905
 21
-124.0
 31
0.0
  0
LINE
  5
4B
100
AcDbEntity
  8
0
390
0
  6
CONTINUOUS
 62
     3
100
AcDbLine
 10
253.18692
 20
-98.343898
 30
0.0
 11
253.18692
 21
-101.0
 31
0.0
  0
LINE
  5
4C
100
AcDbEntity
  8
0
390
0
  6
CONTINUOUS
 62
     3
100
AcDbLine
 10
239.186905
 20
-101.0
 30
0.0
 11
253.18692
 21
-101.0
 31
0.0
  0
LINE
  5
4D
100
AcDbEntity
  8
0
390
0
  6
CONTINUOUS
 62
     3
100
AcDbLine
 10
239.186905
 20
-98.615003
 30
0.0
 11
239.186905
 21
-101.0
 31
0.0
  0
ARC
  5
4E
100
AcDbEntity
  8
0
390
0
  6
CONTINUOUS
 62
     3
100
AcDbCircle
 10
239.386901
 20
-102.299988
 30
0.0
 40
1.3
100
AcDbArc
 50
0.0
 51
90.0
  0
ARC
  5
4F
100
AcDbEntity
  8
0
390
0
  6
CONTINUOUS
 62
     3
100
AcDbCircle
 10
252.986908
 20
-102.299988
 30
0.0
 40
1.3
100
AcDbArc
 50
90.0
 51
180.0
  0
LINE
  5
50
100
AcDbEntity
  8
0
390
0
  6
CONTINUOUS
 62
     3
100
AcDbLine
 10
251.68692
 20
-102.299988
 30
0.0
 11
251.686905
 21
-123.25
 31
0.0
  0
LINE
  5
51
100
AcDbEntity
  8
0
390
0
  6
CONTINUOUS
 62
     3
100
AcDbLine
 10
326.18692
 20
-101.0
 30
0.0
 11
279.367044
 21
-101.0
 31
0.0
  0
LINE
  5
52
100
AcDbEntity
  8
0
390
0
  6
CONTINUOUS
 62
     3
100
AcDbLine
 10
285.884918
 20
-104.5
 30
0.0
 11
301.18692
 21
-104.5
 31
0.0
  0
LINE
  5
53
100
AcDbEntity
  8
0
390
0
  6
CONTINUOUS
 62
     3
100
AcDbLine
 10
301.18692
 20
-101.0
 30
0.0
 11
301.18692
 21
-104.5
 31
0.0
  0
ARC
  5
54
100
AcDbEntity
  8
0
390
0
  6
CONTINUOUS
 62
     3
100
AcDbCircle
 10
294.18692
 20
-87.0
 30
0.0
 40
5.0
100
AcDbArc
 50
180.0
 51
270.0
  0
LINE
  5
55
100
AcDbEntity
  8
0
390
0
  6
CONTINUOUS
 62
     3
100
AcDbLine
 10
326.18692
 20
-101.0
 30
0.0
 11
326.18692
 21
-93.0
 31
0.0
  0
ARC
  5
56
100
AcDbEntity
  8
0
390
0
  6
CONTINUOUS
 62
     3
100
AcDbCircle
 10
325.18692
 20
-93.0
 30
0.0
 40
1.0
100
AcDbArc
 50
0.0
 51
90.0
  0
LINE
  5
57
100
AcDbEntity
  8
0
390
0
  6
CONTINUOUS
 62
     3
100
AcDbLine
 10
190.186905
 20
-67.0
 30
0.0
 11
302.18692
 21
-67.0
 31
0.0
  0
LINE
  5
58
100
AcDbEntity
  8
0
390
0
  6
CONTINUOUS
 62
     3
100
AcDbLine
 10
189.186905
 20
-61.0
 30
0.0
 11
303.18692
 21
-61.0
 31
0.0
  0
LINE
  5
59
100
AcDbEntity
  8
0
390
0
  6
CONTINUOUS
 62
     3
100
AcDbLine
 10
189.186905
 20
-61.0
 30
0.0
 11
189.186905
 21
-66.0
 31
0.0
  0
ARC
  5
5A
100
AcDbEntity
  8
0
390
0
  6
CONTINUOUS
 62
     3
100
AcDbCircle
 10
190.186905
 20
-66.0
 30
0.0
 40
1.0
100
AcDbArc
 50
180.0
 51
270.0
  0
LINE
  5
5B
100
AcDbEntity
  8
0
390
0
  6
CONTINUOUS
 62
     3
100
AcDbLine
 10
302.786895
 20
56.0
 30
0.0
 11
302.786895
 21
-61.0
 31
0.0
  0
LINE
  5
5C
100
AcDbEntity
  8
0
390
0
  6
CONTINUOUS
 62
     3
100
AcDbLine
 10
303.18692
 20
-66.0
 30
0.0
 11
303.18692
 21
-61.0
 31
0.0
  0
ARC
  5
5D
100
AcDbEntity
  8
0
390
0
  6
CONTINUOUS
 62
     3
100
AcDbCircle
 10
302.18692
 20
-66.0
 30
0.0
 40
1.0
100
AcDbArc
 50
270.0
 51
0.0
  0
LINE
  5
5E
100
AcDbEntity
  8
0
390
0
  6
CONTINUOUS
 62
     3
100
AcDbLine
 10
189.590225
 20
108.0
 30
0.0
 11
302.957183
 21
108.0
 31
0.0
  0
LINE
  5
5F
100
AcDbEntity
  8
0
390
0
  6
CONTINUOUS
 62
     3
100
AcDbLine
 10
304.42807
 20
106.794189
 30
0.0
 11
310.18692
 21
78.0
 31
0.0
  0
ARC
  5
60
100
AcDbEntity
  8
0
390
0
  6
CONTINUOUS
 62
     3
100
AcDbCircle
 10
312.18692
 20
76.5
 30
0.0
 40
1.5
100
AcDbArc
 50
0.0
 51
90.0
  0
ARC
  5
61
100
AcDbEntity
  8
0
390
0
  6
CONTINUOUS
 62
     3
100
AcDbCircle
 10
302.957183
 20
106.5
 30
0.0
 40
1.5
100
AcDbArc
 50
11.31039
 51
90.0
  0
SPLINE
  5
62
100
AcDbEntity
  8
0
390
0
  6
CONTINUOUS
 62
     3
100
AcDbSpline
210
0.0
220
0.0
230
1.0
 70
     0
 71
     3
 72
     0
 73
     0
 74
    41
 44
0.000001
 12
0.5928392438627662
 22
0.8053208248494655
 32
0.0
 13
0.6741854468911201
 23
-0.7385621051747922
 33
0.0
 11
214.99609982863561
 21
-104.50000015843489
 31
0.0
 11
216.15755522859635
 21
-103.38065743723121
 31
0.0
 11
217.83695734342152
 21
-102.70534766281173
 31
0.0
 11
219.84698603501229
 21
-102.32199087888955
 31
0.0
 11
222.0003211652697
 21
-102.07850712917809
 31
0.0
 11
224.11204892730822
 21
-101.82482546328811
 31
0.0
 11
226.08675953941847
 21
-101.48560035243304
 31
0.0
 11
227.9430262887885
 21
-101.08064883579073
 31
0.0
 11
229.70681448371332
 21
-100.63595942798509
 31
0.0
 11
231.40408943248778
 21
-100.17752064364004
 31
0.0
 11
233.06081644340688
 21
-99.731320997379498
 31
0.0
 11
234.70296082476548
 21
-99.323349003827502
 31
0.0
 11
236.35648788485858
 21
-98.979593177607853
 31
0.0
 11
238.04728137835465
 21
-98.725932503536683
 31
0.0
 11
239.78955912893773
 21
-98.572578150810727
 31
0.0
 11
241.57384413250949
 21
-98.497918179669568
 31
0.0
 11
243.38778633413384
 21
-98.476482027251905
 31
0.0
 11
245.2190356788748
 21
-98.482799130696094
 31
0.0
 11
247.05524211179616
 21
-98.491398927140835
 31
0.0
 11
248.88431521430616
 21
-98.477507753515283
 31
0.0
 11
250.70061832405466
 21
-98.433674719438841
 31
0.0
 11
252.50524831669131
 21
-98.370522680083809
 31
0.0
 11
254.29961769215569
 21
-98.299521669788419
 31
0.0
 11
256.08513895038732
 21
-98.232141722890447
 31
0.0
 11
257.86322658850918
 21
-98.17975866533402
 31
0.0
 11
259.63535335815266
 21
-98.151000421541426
 31
0.0
 11
261.40305806259141
 21
-98.151379218715306
 31
0.0
 11
263.1678830694276
 21
-98.186239152476787
 31
0.0
 11
264.93137074626316
 21
-98.260924318446769
 31
0.0
 11
266.6950634607
 21
-98.380778812246149
 31
0.0
 11
268.46050358034017
 21
-98.551146729496054
 31
0.0
 11
270.22923347278549
 21
-98.777372165817383
 31
0.0
 11
272.00279550563812
 21
-99.064799216831148
 31
0.0
 11
273.78273204649986
 21
-99.418771978158361
 31
0.0
 11
275.57058546297276
 21
-99.844634545419808
 31
0.0
 11
277.36789812265874
 21
-100.34773101423662
 31
0.0
 11
279.17621239315974
 21
-100.93340548022979
 31
0.0
 11
280.9970706420778
 21
-101.60700203902024
 31
0.0
 11
282.82550377088944
 21
-102.37671468872156
 31
0.0
 11
284.53380910516444
 21
-103.30445478036688
 31
0.0
 11
285.88491845659439
 21
-104.50000015843216
 31
0.0
  0
LINE
  5
63
100
AcDbEntity
  8
0
390
0
  6
CONTINUOUS
 62
     7
100
AcDbLine
 10
241.586905
 20
-68.3
 30
0.0
 11
250.786905
 21
-68.3
 31
0.0
  0
LINE
  5
64
100
AcDbEntity
  8
0
390
0
  6
CONTINUOUS
 62
     7
100
AcDbLine
 10
250.786905
 20
-68.3
 30
0.0
 11
250.786905
 21
-67.0
 31
0.0
  0
LINE
  5
65
100
AcDbEntity
  8
0
390
0
  6
CONTINUOUS
 62
     7
100
AcDbLine
 10
247.31246
 20
-68.3
 30
0.0
 11
246.561905
 21
-67.0
 31
0.0
  0
LINE
  5
66
100
AcDbEntity
  8
0
390
0
  6
CONTINUOUS
 62
     7
100
AcDbLine
 10
245.81135
 20
-68.3
 30
0.0
 11
245.060794
 21
-67.0
 31
0.0
  0
LINE
  5
67
100
AcDbEntity
  8
0
390
0
  6
CONTINUOUS
 62
     7
100
AcDbLine
 10
241.586905
 20
-68.3
 30
0.0
 11
241.586905
 21
-67.0
 31
0.0
  0
LINE
  5
68
100
AcDbEntity
  8
0
390
0
  6
CONTINUOUS
 62
     7
100
AcDbLine
 10
248.477504
 20
-68.3
 30
0.0
 11
248.477504
 21
-71.895855
 31
0.0
  0
LINE
  5
69
100
AcDbEntity
  8
0
390
0
  6
CONTINUOUS
 62
     7
100
AcDbLine
 10
250.786905
 20
-71.895855
 30
0.0
 11
250.786905
 21
-68.3
 31
0.0
  0
LINE
  5
6A
100
AcDbEntity
  8
0
390
0
  6
CONTINUOUS
 62
     7
100
AcDbLine
 10
243.896306
 20
-68.3
 30
0.0
 11
243.896306
 21
-71.895855
 31
0.0
  0
LINE
  5
6B
100
AcDbEntity
  8
0
390
0
  6
CONTINUOUS
 62
     7
100
AcDbLine
 10
241.586905
 20
-71.895855
 30
0.0
 11
241.586905
 21
-68.3
 31
0.0
  0
LINE
  5
6C
100
AcDbEntity
  8
0
390
0
  6
CONTINUOUS
 62
     7
100
AcDbLine
 10
250.086905
 20
-72.3
 30
0.0
 11
242.286905
 21
-72.3
 31
0.0
  0
ARC
  5
6D
100
AcDbEntity
  8
0
390
0
  6
CONTINUOUS
 62
     7
100
AcDbCircle
 10
246.186905
 20
-65.606642
 30
0.0
 40
6.693358
100
AcDbArc
 50
249.987832
 51
290.012168
  0
LINE
  5
6E
100
AcDbEntity
  8
0
390
0
  6
CONTINUOUS
 62
     7
100
AcDbLine
 10
248.686905
 20
-74.05
 30
0.0
 11
243.686905
 21
-74.05
 31
0.0
  0
LINE
  5
6F
100
AcDbEntity
  8
0
390
0
  6
CONTINUOUS
 62
     7
100
AcDbLine
 10
247.936905
 20
-74.8
 30
0.0
 11
244.436905
 21
-74.8
 31
0.0
  0
ARC
  5
70
100
AcDbEntity
  8
0
390
0
  6
CONTINUOUS
 62
     7
100
AcDbCircle
 10
249.632204
 20
-70.448355
 30
0.0
 40
1.851645
100
AcDbArc
 50
231.419908
 51
270.0
  0
LINE
  5
71
100
AcDbEntity
  8
0
390
0
  6
CONTINUOUS
 62
     7
100
AcDbLine
 10
250.786905
 20
-71.895855
 30
0.0
 11
250.086905
 21
-72.3
 31
0.0
  0
LINE
  5
72
100
AcDbEntity
  8
0
390
0
  6
CONTINUOUS
 62
     7
100
AcDbLine
 10
247.936905
 20
-74.8
 30
0.0
 11
247.936905
 21
-72.3
 31
0.0
  0
LINE
  5
73
100
AcDbEntity
  8
0
390
0
  6
CONTINUOUS
 62
     7
100
AcDbLine
 10
248.686905
 20
-74.05
 30
0.0
 11
248.686905
 21
-72.3
 31
0.0
  0
LINE
  5
74
100
AcDbEntity
  8
0
390
0
  6
CONTINUOUS
 62
     7
100
AcDbLine
 10
247.936905
 20
-74.8
 30
0.0
 11
248.686905
 21
-74.05
 31
0.0
  0
ARC
  5
75
100
AcDbEntity
  8
0
390
0
  6
CONTINUOUS
 62
     7
100
AcDbCircle
 10
242.741606
 20
-70.448355
 30
0.0
 40
1.851645
100
AcDbArc
 50
270.0
 51
308.580092
  0
LINE
  5
76
100
AcDbEntity
  8
0
390
0
  6
CONTINUOUS
 62
     7
100
AcDbLine
 10
244.436905
 20
-74.8
 30
0.0
 11
244.436905
 21
-72.3
 31
0.0
  0
LINE
  5
77
100
AcDbEntity
  8
0
390
0
  6
CONTINUOUS
 62
     7
100
AcDbLine
 10
243.686905
 20
-74.05
 30
0.0
 11
243.686905
 21
-72.3
 31
0.0
  0
LINE
  5
78
100
AcDbEntity
  8
0
390
0
  6
CONTINUOUS
 62
     7
100
AcDbLine
 10
243.686905
 20
-74.05
 30
0.0
 11
244.436905
 21
-74.8
 31
0.0
  0
LINE
  5
79
100
AcDbEntity
  8
0
390
0
  6
CONTINUOUS
 62
     7
100
AcDbLine
 10
242.286905
 20
-72.3
 30
0.0
 11
241.586905
 21
-71.895855
 31
0.0
  0
LINE
  5
7A
100
AcDbEntity
  8
0
390
0
  6
CONTINUOUS
 62
     7
100
AcDbLine
 10
292.104214
 20
-74.8
 30
0.0
 11
292.854214
 21
-74.05
 31
0.0
  0
ARC
  5
7B
100
AcDbEntity
  8
0
390
0
  6
CONTINUOUS
 62
     7
100
AcDbCircle
 10
293.799513
 20
-70.448355
 30
0.0
 40
1.851645
100
AcDbArc
 50
231.419908
 51
270.0
  0
LINE
  5
7C
100
AcDbEntity
  8
0
390
0
  6
CONTINUOUS
 62
     7
100
AcDbLine
 10
292.854214
 20
-74.05
 30
0.0
 11
287.854214
 21
-74.05
 31
0.0
  0
LINE
  5
7D
100
AcDbEntity
  8
0
390
0
  6
CONTINUOUS
 62
     7
100
AcDbLine
 10
294.254214
 20
-72.3
 30
0.0
 11
286.454214
 21
-72.3
 31
0.0
  0
LINE
  5
7E
100
AcDbEntity
  8
0
390
0
  6
CONTINUOUS
 62
     7
100
AcDbLine
 10
294.954214
 20
-68.3
 30
0.0
 11
285.754214
 21
-68.3
 31
0.0
  0
LINE
  5
7F
100
AcDbEntity
  8
0
390
0
  6
CONTINUOUS
 62
     7
100
AcDbLine
 10
286.454214
 20
-72.3
 30
0.0
 11
285.754214
 21
-71.895855
 31
0.0
  0
LINE
  5
80
100
AcDbEntity
  8
0
390
0
  6
CONTINUOUS
 62
     7
100
AcDbLine
 10
287.854214
 20
-74.05
 30
0.0
 11
288.604214
 21
-74.8
 31
0.0
  0
LINE
  5
81
100
AcDbEntity
  8
0
390
0
  6
CONTINUOUS
 62
     7
100
AcDbLine
 10
287.854214
 20
-74.05
 30
0.0
 11
287.854214
 21
-72.3
 31
0.0
  0
LINE
  5
82
100
AcDbEntity
  8
0
390
0
  6
CONTINUOUS
 62
     7
100
AcDbLine
 10
288.604214
 20
-74.8
 30
0.0
 11
288.604214
 21
-72.3
 31
0.0
  0
ARC
  5
83
100
AcDbEntity
  8
0
390
0
  6
CONTINUOUS
 62
     7
100
AcDbCircle
 10
286.908915
 20
-70.448355
 30
0.0
 40
1.851645
100
AcDbArc
 50
270.0
 51
308.580092
  0
LINE
  5
84
100
AcDbEntity
  8
0
390
0
  6
CONTINUOUS
 62
     7
100
AcDbLine
 10
292.104214
 20
-74.8
 30
0.0
 11
292.104214
 21
-72.3
 31
0.0
  0
LINE
  5
85
100
AcDbEntity
  8
0
390
0
  6
CONTINUOUS
 62
     7
100
AcDbLine
 10
292.104214
 20
-74.8
 30
0.0
 11
288.604214
 21
-74.8
 31
0.0
  0
ARC
  5
86
100
AcDbEntity
  8
0
390
0
  6
CONTINUOUS
 62
     7
100
AcDbCircle
 10
290.354214
 20
-65.606642
 30
0.0
 40
6.693358
100
AcDbArc
 50
249.987832
 51
290.012168
  0
LINE
  5
87
100
AcDbEntity
  8
0
390
0
  6
CONTINUOUS
 62
     7
100
AcDbLine
 10
285.754214
 20
-71.895855
 30
0.0
 11
285.754214
 21
-68.3
 31
0.0
  0
LINE
  5
88
100
AcDbEntity
  8
0
390
0
  6
CONTINUOUS
 62
     7
100
AcDbLine
 10
288.063615
 20
-68.3
 30
0.0
 11
288.063615
 21
-71.895855
 31
0.0
  0
LINE
  5
89
100
AcDbEntity
  8
0
390
0
  6
CONTINUOUS
 62
     7
100
AcDbLine
 10
292.644813
 20
-68.3
 30
0.0
 11
292.644813
 21
-71.895855
 31
0.0
  0
LINE
  5
8A
100
AcDbEntity
  8
0
390
0
  6
CENTER
 62
     7
100
AcDbLine
 10
290.354214
 20
-64.753794
 30
0.0
 11
290.354214
 21
-77.987688
 31
0.0
  0
LINE
  5
8B
100
AcDbEntity
  8
0
390
0
  6
CONTINUOUS
 62
     7
100
AcDbLine
 10
285.754214
 20
-68.3
 30
0.0
 11
285.754214
 21
-67.0
 31
0.0
  0
LINE
  5
8C
100
AcDbEntity
  8
0
390
0
  6
CONTINUOUS
 62
     7
100
AcDbLine
 10
289.978659
 20
-68.3
 30
0.0
 11
289.228103
 21
-67.0
 31
0.0
  0
LINE
  5
8D
100
AcDbEntity
  8
0
390
0
  6
CONTINUOUS
 62
     7
100
AcDbLine
 10
291.479769
 20
-68.3
 30
0.0
 11
290.729214
 21
-67.0
 31
0.0
  0
LINE
  5
8E
100
AcDbEntity
  8
0
390
0
  6
CONTINUOUS
 62
     7
100
AcDbLine
 10
292.854214
 20
-74.05
 30
0.0
 11
292.854214
 21
-72.3
 31
0.0
  0
LINE
  5
8F
100
AcDbEntity
  8
0
390
0
  6
CONTINUOUS
 62
     7
100
AcDbLine
 10
294.954214
 20
-71.895855
 30
0.0
 11
294.254214
 21
-72.3
 31
0.0
  0
LINE
  5
90
100
AcDbEntity
  8
0
390
0
  6
CONTINUOUS
 62
     7
100
AcDbLine
 10
294.954214
 20
-71.895855
 30
0.0
 11
294.954214
 21
-68.3
 31
0.0
  0
LINE
  5
91
100
AcDbEntity
  8
0
390
0
  6
CONTINUOUS
 62
     7
100
AcDbLine
 10
294.954214
 20
-68.3
 30
0.0
 11
294.954214
 21
-67.0
 31
0.0
  0
LINE
  5
92
100
AcDbEntity
  8
0
390
0
  6
CONTINUOUS
 62
     3
100
AcDbLine
 10
289.18692
 20
-74.8
 30
0.0
 11
289.18692
 21
-87.0
 31
0.0
  0
ARC
  5
93
100
AcDbEntity
  8
0
390
0
  6
CONTINUOUS
 62
     7
100
AcDbCircle
 10
205.464897
 20
-70.448355
 30
0.0
 40
1.851645
100
AcDbArc
 50
231.419908
 51
270.0
  0
LINE
  5
94
100
AcDbEntity
  8
0
390
0
  6
CONTINUOUS
 62
     7
100
AcDbLine
 10
204.310197
 20
-68.3
 30
0.0
 11
204.310197
 21
-71.895855
 31
0.0
  0
LINE
  5
95
100
AcDbEntity
  8
0
390
0
  6
CONTINUOUS
 62
     7
100
AcDbLine
 10
204.519598
 20
-74.05
 30
0.0
 11
204.519598
 21
-72.3
 31
0.0
  0
LINE
  5
96
100
AcDbEntity
  8
0
390
0
  6
CONTINUOUS
 62
     7
100
AcDbLine
 10
206.619598
 20
-71.895855
 30
0.0
 11
205.919598
 21
-72.3
 31
0.0
  0
LINE
  5
97
100
AcDbEntity
  8
0
390
0
  6
CONTINUOUS
 62
     7
100
AcDbLine
 10
206.619598
 20
-71.895855
 30
0.0
 11
206.619598
 21
-68.3
 31
0.0
  0
LINE
  5
98
100
AcDbEntity
  8
0
390
0
  6
CONTINUOUS
 62
     7
100
AcDbLine
 10
206.619598
 20
-68.3
 30
0.0
 11
206.619598
 21
-67.0
 31
0.0
  0
LINE
  5
99
100
AcDbEntity
  8
0
390
0
  6
CONTINUOUS
 62
     7
100
AcDbLine
 10
198.119598
 20
-72.3
 30
0.0
 11
197.419598
 21
-71.895855
 31
0.0
  0
LINE
  5
9A
100
AcDbEntity
  8
0
390
0
  6
CONTINUOUS
 62
     7
100
AcDbLine
 10
199.519598
 20
-74.05
 30
0.0
 11
200.269598
 21
-74.8
 31
0.0
  0
LINE
  5
9B
100
AcDbEntity
  8
0
390
0
  6
CONTINUOUS
 62
     7
100
AcDbLine
 10
199.519598
 20
-74.05
 30
0.0
 11
199.519598
 21
-72.3
 31
0.0
  0
LINE
  5
9C
100
AcDbEntity
  8
0
390
0
  6
CONTINUOUS
 62
     7
100
AcDbLine
 10
200.269598
 20
-74.8
 30
0.0
 11
200.269598
 21
-72.3
 31
0.0
  0
ARC
  5
9D
100
AcDbEntity
  8
0
390
0
  6
CONTINUOUS
 62
     7
100
AcDbCircle
 10
198.574299
 20
-70.448355
 30
0.0
 40
1.851645
100
AcDbArc
 50
270.0
 51
308.580092
  0
LINE
  5
9E
100
AcDbEntity
  8
0
390
0
  6
CONTINUOUS
 62
     7
100
AcDbLine
 10
203.769598
 20
-74.8
 30
0.0
 11
203.769598
 21
-72.3
 31
0.0
  0
LINE
  5
9F
100
AcDbEntity
  8
0
390
0
  6
CONTINUOUS
 62
     7
100
AcDbLine
 10
203.769598
 20
-74.8
 30
0.0
 11
200.269598
 21
-74.8
 31
0.0
  0
LINE
  5
A0
100
AcDbEntity
  8
0
390
0
  6
CONTINUOUS
 62
     7
100
AcDbLine
 10
197.419598
 20
-71.895855
 30
0.0
 11
197.419598
 21
-68.3
 31
0.0
  0
LINE
  5
A1
100
AcDbEntity
  8
0
390
0
  6
CONTINUOUS
 62
     7
100
AcDbLine
 10
199.728999
 20
-68.3
 30
0.0
 11
199.728999
 21
-71.895855
 31
0.0
  0
LINE
  5
A2
100
AcDbEntity
  8
0
390
0
  6
CENTER
 62
     7
100
AcDbLine
 10
202.019598
 20
-64.753794
 30
0.0
 11
202.019598
 21
-77.987688
 31
0.0
  0
LINE
  5
A3
100
AcDbEntity
  8
0
390
0
  6
CONTINUOUS
 62
     7
100
AcDbLine
 10
197.419598
 20
-68.3
 30
0.0
 11
197.419598
 21
-67.0
 31
0.0
  0
LINE
  5
A4
100
AcDbEntity
  8
0
390
0
  6
CONTINUOUS
 62
     7
100
AcDbLine
 10
201.644043
 20
-68.3
 30
0.0
 11
200.893487
 21
-67.0
 31
0.0
  0
LINE
  5
A5
100
AcDbEntity
  8
0
390
0
  6
CONTINUOUS
 62
     7
100
AcDbLine
 10
203.145153
 20
-68.3
 30
0.0
 11
202.394598
 21
-67.0
 31
0.0
  0
LINE
  5
A6
100
AcDbEntity
  8
0
390
0
  6
CONTINUOUS
 62
     7
100
AcDbLine
 10
203.769598
 20
-74.8
 30
0.0
 11
204.519598
 21
-74.05
 31
0.0
  0
LINE
  5
A7
100
AcDbEntity
  8
0
390
0
  6
CONTINUOUS
 62
     7
100
AcDbLine
 10
204.519598
 20
-74.05
 30
0.0
 11
199.519598
 21
-74.05
 31
0.0
  0
LINE
  5
A8
100
AcDbEntity
  8
0
390
0
  6
CONTINUOUS
 62
     7
100
AcDbLine
 10
205.919598
 20
-72.3
 30
0.0
 11
198.119598
 21
-72.3
 31
0.0
  0
LINE
  5
A9
100
AcDbEntity
  8
0
390
0
  6
CONTINUOUS
 62
     7
100
AcDbLine
 10
206.619598
 20
-68.3
 30
0.0
 11
197.419598
 21
-68.3
 31
0.0
  0
ARC
  5
AA
100
AcDbEntity
  8
0
390
0
  6
CONTINUOUS
 62
     7
100
AcDbCircle
 10
202.019598
 20
-65.606642
 30
0.0
 40
6.693358
100
AcDbArc
 50
249.987832
 51
290.012168
  0
LINE
  5
AB
100
AcDbEntity
  8
0
390
0
  6
CONTINUOUS
 62
     3
100
AcDbLine
 10
178.68689
 20
76.5
 30
0.0
 11
178.68689
 21
56.0
 31
0.0
  0
LINE
  5
AC
100
AcDbEntity
  8
0
390
0
  6
CONTINUOUS
 62
     3
100
AcDbLine
 10
187.94574
 20
106.794189
 30
0.0
 11
182.18689
 21
78.0
 31
0.0
  0
ARC
  5
AD
100
AcDbEntity
  8
0
390
0
  6
CONTINUOUS
 62
     3
100
AcDbCircle
 10
180.18689
 20
76.5
 30
0.0
 40
1.5
100
AcDbArc
 50
90.0
 51
180.0
  0
ARC
  5
AE
100
AcDbEntity
  8
0
390
0
  6
CONTINUOUS
 62
     3
100
AcDbCircle
 10
189.416627
 20
106.5
 30
0.0
 40
1.5
100
AcDbArc
 50
90.0
 51
168.68961
  0
LINE
  5
AF
100
AcDbEntity
  8
0
390
0
  6
CONTINUOUS
 62
     7
100
AcDbLine
 10
246.186905
 20
69.1
 30
0.0
 11
250.186905
 21
66.828437
 31
0.0
  0
LINE
  5
B0
100
AcDbEntity
  8
0
390
0
  6
CONTINUOUS
 62
     7
100
AcDbLine
 10
246.186905
 20
69.1
 30
0.0
 11
242.186905
 21
66.828437
 31
0.0
  0
LINE
  5
B1
100
AcDbEntity
  8
0
390
0
  6
CONTINUOUS
 62
     7
100
AcDbLine
 10
243.786905
 20
65.1
 30
0.0
 11
244.386905
 21
65.1
 31
0.0
  0
LINE
  5
B2
100
AcDbEntity
  8
0
390
0
  6
CONTINUOUS
 62
     7
100
AcDbLine
 10
243.786905
 20
63.9
 30
0.0
 11
244.386905
 21
63.9
 31
0.0
  0
LINE
  5
B3
100
AcDbEntity
  8
0
390
0
  6
CENTER
 62
     7
100
AcDbLine
 10
239.784945
 20
64.5
 30
0.0
 11
252.117142
 21
64.5
 31
0.0
  0
CIRCLE
  5
B4
100
AcDbEntity
  8
0
390
0
  6
CONTINUOUS
 62
     7
100
AcDbCircle
 10
246.186905
 20
64.5
 30
0.0
 40
3.5
  0
CIRCLE
  5
B5
100
AcDbEntity
  8
0
390
0
  6
CONTINUOUS
 62
     7
100
AcDbCircle
 10
246.186905
 20
64.5
 30
0.0
 40
4.0
  0
LINE
  5
B6
100
AcDbEntity
  8
0
390
0
  6
CONTINUOUS
 62
     7
100
AcDbLine
 10
246.186905
 20
59.9
 30
0.0
 11
242.186905
 21
62.171563
 31
0.0
  0
LINE
  5
B7
100
AcDbEntity
  8
0
390
0
  6
CONTINUOUS
 62
     7
100
AcDbLine
 10
242.186905
 20
62.171563
 30
0.0
 11
242.186905
 21
66.828437
 31
0.0
  0
LINE
  5
B8
100
AcDbEntity
  8
0
390
0
  6
CONTINUOUS
 62
     7
100
AcDbLine
 10
243.786905
 20
65.1
 30
0.0
 11
243.786905
 21
63.9
 31
0.0
  0
ARC
  5
B9
100
AcDbEntity
  8
0
390
0
  6
CONTINUOUS
 62
     7
100
AcDbCircle
 10
247.986905
 20
62.7
 30
0.0
 40
1.2
100
AcDbArc
 50
90.0
 51
180.0
  0
LINE
  5
BA
100
AcDbEntity
  8
0
390
0
  6
CONTINUOUS
 62
     7
100
AcDbLine
 10
250.186905
 20
66.828437
 30
0.0
 11
250.186905
 21
62.171563
 31
0.0
  0
ARC
  5
BB
100
AcDbEntity
  8
0
390
0
  6
CONTINUOUS
 62
     7
100
AcDbCircle
 10
244.386905
 20
62.7
 30
0.0
 40
1.2
100
AcDbArc
 50
0.0
 51
90.0
  0
LINE
  5
BC
100
AcDbEntity
  8
0
390
0
  6
CONTINUOUS
 62
     7
100
AcDbLine
 10
246.186905
 20
59.9
 30
0.0
 11
250.186905
 21
62.171563
 31
0.0
  0
LINE
  5
BD
100
AcDbEntity
  8
0
390
0
  6
CONTINUOUS
 62
     7
100
AcDbLine
 10
245.586905
 20
62.1
 30
0.0
 11
246.786905
 21
62.1
 31
0.0
  0
LINE
  5
BE
100
AcDbEntity
  8
0
390
0
  6
CONTINUOUS
 62
     7
100
AcDbLine
 10
245.586905
 20
62.7
 30
0.0
 11
245.586905
 21
62.1
 31
0.0
  0
LINE
  5
BF
100
AcDbEntity
  8
0
390
0
  6
CONTINUOUS
 62
     7
100
AcDbLine
 10
246.786905
 20
62.7
 30
0.0
 11
246.786905
 21
62.1
 31
0.0
  0
ARC
  5
C0
100
AcDbEntity
  8
0
390
0
  6
CONTINUOUS
 62
     7
100
AcDbCircle
 10
247.986905
 20
66.3
 30
0.0
 40
1.2
100
AcDbArc
 50
180.0
 51
270.0
  0
ARC
  5
C1
100
AcDbEntity
  8
0
390
0
  6
CONTINUOUS
 62
     7
100
AcDbCircle
 10
244.386905
 20
66.3
 30
0.0
 40
1.2
100
AcDbArc
 50
270.0
 51
0.0
  0
LINE
  5
C2
100
AcDbEntity
  8
0
390
0
  6
CONTINUOUS
 62
     7
100
AcDbLine
 10
248.586905
 20
65.1
 30
0.0
 11
248.586905
 21
63.9
 31
0.0
  0
LINE
  5
C3
100
AcDbEntity
  8
0
390
0
  6
CONTINUOUS
 62
     7
100
AcDbLine
 10
247.986905
 20
63.9
 30
0.0
 11
248.586905
 21
63.9
 31
0.0
  0
LINE
  5
C4
100
AcDbEntity
  8
0
390
0
  6
CONTINUOUS
 62
     7
100
AcDbLine
 10
247.986905
 20
65.1
 30
0.0
 11
248.586905
 21
65.1
 31
0.0
  0
LINE
  5
C5
100
AcDbEntity
  8
0
390
0
  6
CONTINUOUS
 62
     7
100
AcDbLine
 10
245.586905
 20
66.9
 30
0.0
 11
246.786905
 21
66.9
 31
0.0
  0
LINE
  5
C6
100
AcDbEntity
  8
0
390
0
  6
CONTINUOUS
 62
     7
100
AcDbLine
 10
245.586905
 20
66.9
 30
0.0
 11
245.586905
 21
66.3
 31
0.0
  0
LINE
  5
C7
100
AcDbEntity
  8
0
390
0
  6
CONTINUOUS
 62
     7
100
AcDbLine
 10
246.786905
 20
66.9
 30
0.0
 11
246.786905
 21
66.3
 31
0.0
  0
LINE
  5
C8
100
AcDbEntity
  8
0
390
0
  6
CONTINUOUS
 62
     3
100
AcDbLine
 10
189.583745
 20
43.5
 30
0.0
 11
191.515513
 21
43.5
 31
0.0
  0
ELLIPSE
  5
C9
100
AcDbEntity
  8
0
390
0
  6
CONTINUOUS
 62
     3
100
AcDbEllipse
 10
191.515513
 20
35.0
 30
0.0
 11
0.0000000000000005
 21
8.5
 31
0.0
210
0.0
220
0.0
230
1.0
 40
0.308171
 41
3.1415926535897931
 42
0.0
  0
LINE
  5
CA
100
AcDbEntity
  8
0
390
0
  6
CONTINUOUS
 62
     3
100
AcDbLine
 10
189.586914
 20
26.50001
 30
0.0
 11
191.515513
 21
26.5
 31
0.0
  0
LINE
  5
CB
100
AcDbEntity
  8
0
390
0
  6
CONTINUOUS
 62
     3
100
AcDbLine
 10
189.586914
 20
-61.0
 30
0.0
 11
189.586914
 21
26.50001
 31
0.0
  0
ELLIPSE
  5
CC
100
AcDbEntity
  8
0
390
0
  6
CONTINUOUS
 62
     7
100
AcDbEllipse
 10
190.742773
 20
0.0
 30
0.0
 11
0.0000000000000004
 21
5.75
 31
0.0
210
0.0
220
0.0
230
1.0
 40
0.270072
 41
0.8395097131007878
 42
2.3020829404890044
  0
LINE
  5
CD
100
AcDbEntity
  8
0
390
0
  6
CONTINUOUS
 62
     7
100
AcDbLine
 10
188.970874
 20
-4.339532
 30
0.0
 11
189.586914
 21
-4.395752
 31
0.0
  0
LINE
  5
CE
100
AcDbEntity
  8
0
390
0
  6
CONTINUOUS
 62
     7
100
AcDbLine
 10
188.970874
 20
4.339532
 30
0.0
 11
189.586914
 21
4.395752
 31
0.0
  0
ELLIPSE
  5
CF
100
AcDbEntity
  8
0
390
0
  6
CONTINUOUS
 62
     7
100
AcDbEllipse
 10
188.317673
 20
0.0
 30
0.0
 11
0.0000000000000003
 21
4.2799999999999718
 31
0.0
210
0.0
220
0.0
230
1.0
 40
0.25884
 41
0.7293296082659877
 42
2.4122630453237619
  0
ARC
  5
D0
100
AcDbEntity
  8
0
390
0
  6
CONTINUOUS
 62
     7
100
AcDbCircle
 10
189.116286
 20
2.746153
 30
0.0
 40
1.6
100
AcDbArc
 50
95.214391
 51
163.847726
  0
ARC
  5
D1
100
AcDbEntity
  8
0
390
0
  6
CONTINUOUS
 62
     7
100
AcDbCircle
 10
189.116286
 20
-2.746154
 30
0.0
 40
1.6
100
AcDbArc
 50
196.152274
 51
264.785609
  0
LINE
  5
D2
100
AcDbEntity
  8
0
390
0
  6
CONTINUOUS
 62
     3
100
AcDbLine
 10
243.024649
 20
-124.0
 30
0.0
 11
243.024649
 21
-104.0
 31
0.0
  0
LINE
  5
D3
100
AcDbEntity
  8
0
390
0
  6
CONTINUOUS
 62
     3
100
AcDbLine
 10
249.349162
 20
-124.0
 30
0.0
 11
249.349162
 21
-104.0
 31
0.0
  0
LINE
  5
D4
100
AcDbEntity
  8
0
390
0
  6
CONTINUOUS
 62
     3
100
AcDbLine
 10
251.686905
 20
-123.25
 30
0.0
 11
250.936905
 21
-124.0
 31
0.0
  0
LINE
  5
D5
100
AcDbEntity
  8
0
390
0
  6
CONTINUOUS
 62
     3
100
AcDbLine
 10
249.349162
 20
-123.25
 30
0.0
 11
251.686905
 21
-123.25
 31
0.0
  0
LINE
  5
D6
100
AcDbEntity
  8
0
390
0
  6
CONTINUOUS
 62
     3
100
AcDbLine
 10
243.024649
 20
-104.0
 30
0.0
 11
249.349162
 21
-104.0
 31
0.0
  0
ELLIPSE
  5
D7
100
AcDbEntity
  8
0
390
0
  6
CONTINUOUS
 62
     3
100
AcDbEllipse
 10
189.583701
 20
35.000005
 30
0.0
 11
0.0000184343153202
 21
8.499995620920572
 31
0.0
210
0.0
220
0.0
230
1.0
 40
0.243601
 41
2.656952199204762
 42
1.3512983538579046
  0
ELLIPSE
  5
D8
100
AcDbEntity
  8
0
390
0
  6
CONTINUOUS
 62
     3
100
AcDbEllipse
 10
189.583701
 20
35.000005
 30
0.0
 11
-0.000000000000007
 21
1.999995013700868
 31
0.0
210
0.0
220
0.0
230
1.0
 40
0.258809
 41
4.4465310811057028
 42
0.0367745180902057
  0
ELLIPSE
  5
D9
100
AcDbEntity
  8
0
390
0
  6
CONTINUOUS
 62
     3
100
AcDbEllipse
 10
190.619008
 20
32.5
 30
0.0
 11
0.0000000000000001
 21
2.0
 31
0.0
210
0.0
220
0.0
230
1.0
 40
0.258817
 41
3.1227670866192381
 42
0.0
  0
LINE
  5
DA
100
AcDbEntity
  8
0
390
0
  6
CONTINUOUS
 62
     3
100
AcDbLine
 10
190.619008
 20
30.500378
 30
0.0
 11
190.629073
 21
30.500378
 31
0.0
  0
LINE
  5
DB
100
AcDbEntity
  8
0
390
0
  6
CONTINUOUS
 62
     3
100
AcDbLine
 10
188.687156
 20
29.018016
 30
0.0
 11
185.10056
 21
15.632656
 31
0.0
  0
LINE
  5
DC
100
AcDbEntity
  8
0
390
0
  6
CONTINUOUS
 62
     3
100
AcDbLine
 10
184.820716
 20
30.043078
 30
0.0
 11
181.236856
 21
16.667932
 31
0.0
  0
ARC
  5
DD
100
AcDbEntity
  8
0
390
0
  6
CONTINUOUS
 62
     3
100
AcDbCircle
 10
190.619008
 20
28.500378
 30
0.0
 40
2.0
100
AcDbArc
 50
90.0
 51
165.0
  0
ARC
  5
DE
100
AcDbEntity
  8
0
390
0
  6
CONTINUOUS
 62
     3
100
AcDbCircle
 10
190.641369
 20
28.470765
 30
0.0
 40
6.029276
100
AcDbArc
 50
90.212496
 51
164.883668
  0
LINE
  5
DF
100
AcDbEntity
  8
0
390
0
  6
CONTINUOUS
 62
     3
100
AcDbLine
 10
189.586914
 20
43.5
 30
0.0
 11
189.586914
 21
56.0
 31
0.0
  0
LINE
  5
E0
100
AcDbEntity
  8
0
390
0
  6
CONTINUOUS
 62
     3
100
AcDbLine
 10
188.886545
 20
36.998648
 30
0.0
 11
189.602732
 21
36.998648
 31
0.0
  0
LINE
  5
E1
100
AcDbEntity
  8
0
390
0
  6
CONTINUOUS
 62
     3
100
AcDbLine
 10
183.09099
 20
32.551562
 30
0.0
 11
178.857793
 21
16.753058
 31
0.0
  0
ARC
  5
E2
100
AcDbEntity
  8
0
390
0
  6
CONTINUOUS
 62
     3
100
AcDbCircle
 10
188.886545
 20
30.998648
 30
0.0
 40
6.0
100
AcDbArc
 50
90.0
 51
165.0
  0
SPLINE
  5
E3
100
AcDbEntity
  8
0
390
0
  6
CONTINUOUS
 62
     3
100
AcDbSpline
210
0.0
220
0.0
230
1.0
 70
     0
 71
     3
 72
     0
 73
     0
 74
     4
 44
0.000001
 12
0.5976257737809472
 22
0.8017751770370072
 32
0.0
 13
0.6625789539637162
 23
0.7489920759022405
 33
0.0
 11
181.23685652267758
 21
16.667931800438396
 31
0.0
 11
182.32730794980424
 21
16.769919186293237
 31
0.0
 11
184.26044292852586
 21
15.484560359841339
 31
0.0
 11
185.10055982783385
 21
15.632655620028345
 31
0.0
  0
LINE
  5
E4
100
AcDbEntity
  8
0
390
0
  6
CONTINUOUS
 62
     3
100
AcDbLine
 10
182.910762
 20
16.424132
 30
0.0
 11
182.721497
 21
15.717782
 31
0.0
  0
SPLINE
  5
E5
100
AcDbEntity
  8
0
390
0
  6
CONTINUOUS
 62
     3
100
AcDbSpline
210
0.0
220
0.0
230
1.0
 70
     0
 71
     3
 72
     0
 73
     0
 74
     4
 44
0.000001
 12
0.5976257737809472
 22
0.8017751770370072
 32
0.0
 13
0.6625789539637167
 23
0.7489920759022402
 33
0.0
 11
178.85779361918028
 21
16.753058274866248
 31
0.0
 11
179.94824504630688
 21
16.855045660721203
 31
0.0
 11
181.88138002502851
 21
15.569686834269191
 31
0.0
 11
182.72149692433655
 21
15.717782094456084
 31
0.0
  0
LINE
  5
E6
100
AcDbEntity
  8
0
390
0
  6
CENTER
 62
     7
100
AcDbLine
 10
246.186905
 20
-137.90166
 30
0.0
 11
246.186905
 21
123.02467
 31
0.0
  0
CIRCLE
  5
E7
100
AcDbEntity
  8
0
390
0
  6
CONTINUOUS
 62
     3
100
AcDbCircle
 10
0.0
 20
-253.71687
 30
0.0
 40
80.0
  0
CIRCLE
  5
E8
100
AcDbEntity
  8
0
390
0
  6
CONTINUOUS
 62
     3
100
AcDbCircle
 10
5.287
 20
4.9254
 30
0.0
 40
2.5
  0
LINE
  5
E9
100
AcDbEntity
  8
0
390
0
  6
CONTINUOUS
 62
     3
100
AcDbLine
 10
9.5057
 20
17.3331
 30
0.0
 11
7.7776
 21
7.5325
 31
0.0
  0
LINE
  5
EA
100
AcDbEntity
  8
0
390
0
  6
CONTINUOUS
 62
     3
100
AcDbLine
 10
5.5664
 20
18.0277
 30
0.0
 11
3.8384
 21
8.2271
 31
0.0
  0
LINE
  5
EB
100
AcDbEntity
  8
0
390
0
  6
CONTINUOUS
 62
     3
100
AcDbLine
 10
9.487378
 20
17.44515
 30
0.0
 11
9.4953
 21
17.4496
 31
0.0
  0
LINE
  5
EC
100
AcDbEntity
  8
0
390
0
  6
CONTINUOUS
 62
     3
100
AcDbLine
 10
9.464711
 20
17.432779
 30
0.0
 11
9.487378
 21
17.44515
 31
0.0
  0
LINE
  5
ED
100
AcDbEntity
  8
0
390
0
  6
CONTINUOUS
 62
     3
100
AcDbLine
 10
9.428952
 20
17.413956
 30
0.0
 11
9.464711
 21
17.432779
 31
0.0
  0
LINE
  5
EE
100
AcDbEntity
  8
0
390
0
  6
CONTINUOUS
 62
     3
100
AcDbLine
 10
9.38175
 20
17.39015
 30
0.0
 11
9.428952
 21
17.413956
 31
0.0
  0
LINE
  5
EF
100
AcDbEntity
  8
0
390
0
  6
CONTINUOUS
 62
     3
100
AcDbLine
 10
9.324757
 20
17.362831
 30
0.0
 11
9.38175
 21
17.39015
 31
0.0
  0
LINE
  5
F0
100
AcDbEntity
  8
0
390
0
  6
CONTINUOUS
 62
     3
100
AcDbLine
 10
9.259624
 20
17.333468
 30
0.0
 11
9.324757
 21
17.362831
 31
0.0
  0
LINE
  5
F1
100
AcDbEntity
  8
0
390
0
  6
CONTINUOUS
 62
     3
100
AcDbLine
 10
9.188002
 20
17.303529
 30
0.0
 11
9.259624
 21
17.333468
 31
0.0
  0
LINE
  5
F2
100
AcDbEntity
  8
0
390
0
  6
CONTINUOUS
 62
     3
100
AcDbLine
 10
9.111541
 20
17.274483
 30
0.0
 11
9.188002
 21
17.303529
 31
0.0
  0
LINE
  5
F3
100
AcDbEntity
  8
0
390
0
  6
CONTINUOUS
 62
     3
100
AcDbLine
 10
9.031893
 20
17.247801
 30
0.0
 11
9.111541
 21
17.274483
 31
0.0
  0
LINE
  5
F4
100
AcDbEntity
  8
0
390
0
  6
CONTINUOUS
 62
     3
100
AcDbLine
 10
8.950708
 20
17.22495
 30
0.0
 11
9.031893
 21
17.247801
 31
0.0
  0
LINE
  5
F5
100
AcDbEntity
  8
0
390
0
  6
CONTINUOUS
 62
     3
100
AcDbLine
 10
8.869373
 20
17.207133
 30
0.0
 11
8.950708
 21
17.22495
 31
0.0
  0
LINE
  5
F6
100
AcDbEntity
  8
0
390
0
  6
CONTINUOUS
 62
     3
100
AcDbLine
 10
8.788211
 20
17.194485
 30
0.0
 11
8.869373
 21
17.207133
 31
0.0
  0
LINE
  5
F7
100
AcDbEntity
  8
0
390
0
  6
CONTINUOUS
 62
     3
100
AcDbLine
 10
8.70728
 20
17.186871
 30
0.0
 11
8.788211
 21
17.194485
 31
0.0
  0
LINE
  5
F8
100
AcDbEntity
  8
0
390
0
  6
CONTINUOUS
 62
     3
100
AcDbLine
 10
8.62664
 20
17.184159
 30
0.0
 11
8.70728
 21
17.186871
 31
0.0
  0
LINE
  5
F9
100
AcDbEntity
  8
0
390
0
  6
CONTINUOUS
 62
     3
100
AcDbLine
 10
8.546349
 20
17.186217
 30
0.0
 11
8.62664
 21
17.184159
 31
0.0
  0
LINE
  5
FA
100
AcDbEntity
  8
0
390
0
  6
CONTINUOUS
 62
     3
100
AcDbLine
 10
8.466466
 20
17.19291
 30
0.0
 11
8.546349
 21
17.186217
 31
0.0
  0
LINE
  5
FB
100
AcDbEntity
  8
0
390
0
  6
CONTINUOUS
 62
     3
100
AcDbLine
 10
8.387049
 20
17.204106
 30
0.0
 11
8.466466
 21
17.19291
 31
0.0
  0
LINE
  5
FC
100
AcDbEntity
  8
0
390
0
  6
CONTINUOUS
 62
     3
100
AcDbLine
 10
8.308157
 20
17.219673
 30
0.0
 11
8.387049
 21
17.204106
 31
0.0
  0
LINE
  5
FD
100
AcDbEntity
  8
0
390
0
  6
CONTINUOUS
 62
     3
100
AcDbLine
 10
8.229849
 20
17.239476
 30
0.0
 11
8.308157
 21
17.219673
 31
0.0
  0
LINE
  5
FE
100
AcDbEntity
  8
0
390
0
  6
CONTINUOUS
 62
     3
100
AcDbLine
 10
8.152183
 20
17.263383
 30
0.0
 11
8.229849
 21
17.239476
 31
0.0
  0
LINE
  5
FF
100
AcDbEntity
  8
0
390
0
  6
CONTINUOUS
 62
     3
100
AcDbLine
 10
8.075063
 20
17.29131
 30
0.0
 11
8.152183
 21
17.263383
 31
0.0
  0
LINE
  5
100
100
AcDbEntity
  8
0
390
0
  6
CONTINUOUS
 62
     3
100
AcDbLine
 10
7.99777
 20
17.323361
 30
0.0
 11
8.075063
 21
17.29131
 31
0.0
  0
LINE
  5
101
100
AcDbEntity
  8
0
390
0
  6
CONTINUOUS
 62
     3
100
AcDbLine
 10
7.919431
 20
17.359691
 30
0.0
 11
7.99777
 21
17.323361
 31
0.0
  0
LINE
  5
102
100
AcDbEntity
  8
0
390
0
  6
CONTINUOUS
 62
     3
100
AcDbLine
 10
7.839171
 20
17.400455
 30
0.0
 11
7.919431
 21
17.359691
 31
0.0
  0
LINE
  5
103
100
AcDbEntity
  8
0
390
0
  6
CONTINUOUS
 62
     3
100
AcDbLine
 10
7.756118
 20
17.445806
 30
0.0
 11
7.839171
 21
17.400455
 31
0.0
  0
LINE
  5
104
100
AcDbEntity
  8
0
390
0
  6
CONTINUOUS
 62
     3
100
AcDbLine
 10
7.669396
 20
17.495899
 30
0.0
 11
7.756118
 21
17.445806
 31
0.0
  0
LINE
  5
105
100
AcDbEntity
  8
0
390
0
  6
CONTINUOUS
 62
     3
100
AcDbLine
 10
7.578133
 20
17.550887
 30
0.0
 11
7.669396
 21
17.495899
 31
0.0
  0
LINE
  5
106
100
AcDbEntity
  8
0
390
0
  6
CONTINUOUS
 62
     3
100
AcDbLine
 10
7.481455
 20
17.610925
 30
0.0
 11
7.578133
 21
17.550887
 31
0.0
  0
LINE
  5
107
100
AcDbEntity
  8
0
390
0
  6
CONTINUOUS
 62
     3
100
AcDbLine
 10
7.378488
 20
17.676167
 30
0.0
 11
7.481455
 21
17.610925
 31
0.0
  0
LINE
  5
108
100
AcDbEntity
  8
0
390
0
  6
CONTINUOUS
 62
     3
100
AcDbLine
 10
7.268358
 20
17.746767
 30
0.0
 11
7.378488
 21
17.676167
 31
0.0
  0
LINE
  5
109
100
AcDbEntity
  8
0
390
0
  6
CONTINUOUS
 62
     3
100
AcDbLine
 10
7.150201
 20
17.822153
 30
0.0
 11
7.268358
 21
17.746767
 31
0.0
  0
LINE
  5
10A
100
AcDbEntity
  8
0
390
0
  6
CONTINUOUS
 62
     3
100
AcDbLine
 10
7.023184
 20
17.898857
 30
0.0
 11
7.150201
 21
17.822153
 31
0.0
  0
LINE
  5
10B
100
AcDbEntity
  8
0
390
0
  6
CONTINUOUS
 62
     3
100
AcDbLine
 10
6.886487
 20
17.97268
 30
0.0
 11
7.023184
 21
17.898857
 31
0.0
  0
LINE
  5
10C
100
AcDbEntity
  8
0
390
0
  6
CONTINUOUS
 62
     3
100
AcDbLine
 10
6.739288
 20
18.03943
 30
0.0
 11
6.886487
 21
17.97268
 31
0.0
  0
LINE
  5
10D
100
AcDbEntity
  8
0
390
0
  6
CONTINUOUS
 62
     3
100
AcDbLine
 10
6.580764
 20
18.094908
 30
0.0
 11
6.739288
 21
18.03943
 31
0.0
  0
LINE
  5
10E
100
AcDbEntity
  8
0
390
0
  6
CONTINUOUS
 62
     3
100
AcDbLine
 10
6.410093
 20
18.134921
 30
0.0
 11
6.580764
 21
18.094908
 31
0.0
  0
LINE
  5
10F
100
AcDbEntity
  8
0
390
0
  6
CONTINUOUS
 62
     3
100
AcDbLine
 10
6.226453
 20
18.155272
 30
0.0
 11
6.410093
 21
18.134921
 31
0.0
  0
LINE
  5
110
100
AcDbEntity
  8
0
390
0
  6
CONTINUOUS
 62
     3
100
AcDbLine
 10
6.029022
 20
18.151766
 30
0.0
 11
6.226453
 21
18.155272
 31
0.0
  0
LINE
  5
111
100
AcDbEntity
  8
0
390
0
  6
CONTINUOUS
 62
     3
100
AcDbLine
 10
5.816979
 20
18.120207
 30
0.0
 11
6.029022
 21
18.151766
 31
0.0
  0
LINE
  5
112
100
AcDbEntity
  8
0
390
0
  6
CONTINUOUS
 62
     3
100
AcDbLine
 10
5.5895
 20
18.0564
 30
0.0
 11
5.816979
 21
18.120207
 31
0.0
  0
LINE
  5
113
100
AcDbEntity
  8
0
390
0
  6
CONTINUOUS
 62
     3
100
AcDbLine
 10
7.1115
 20
6.6345
 30
0.0
 11
7.2852
 21
7.6193
 31
0.0
  0
LINE
  5
114
100
AcDbEntity
  8
0
390
0
  6
CONTINUOUS
 62
     3
100
AcDbLine
 10
4.1571
 20
7.1555
 30
0.0
 11
4.3308
 21
8.1403
 31
0.0
  0
CIRCLE
  5
115
100
AcDbEntity
  8
0
390
0
  6
CONTINUOUS
 62
     3
100
AcDbCircle
 10
5.287
 20
4.9254
 30
0.0
 40
1.25
  0
LINE
  5
116
100
AcDbEntity
  8
0
390
0
  6
CONTINUOUS
 62
     3
100
AcDbLine
 10
9.747876
 20
18.92235
 30
0.0
 11
9.7558
 21
18.9268
 31
0.0
  0
LINE
  5
117
100
AcDbEntity
  8
0
390
0
  6
CONTINUOUS
 62
     3
100
AcDbLine
 10
9.725206
 20
18.909979
 30
0.0
 11
9.747876
 21
18.92235
 31
0.0
  0
LINE
  5
118
100
AcDbEntity
  8
0
390
0
  6
CONTINUOUS
 62
     3
100
AcDbLine
 10
9.68944
 20
18.891156
 30
0.0
 11
9.725206
 21
18.909979
 31
0.0
  0
LINE
  5
119
100
AcDbEntity
  8
0
390
0
  6
CONTINUOUS
 62
     3
100
AcDbLine
 10
9.642231
 20
18.867349
 30
0.0
 11
9.68944
 21
18.891156
 31
0.0
  0
LINE
  5
11A
100
AcDbEntity
  8
0
390
0
  6
CONTINUOUS
 62
     3
100
AcDbLine
 10
9.585229
 20
18.840029
 30
0.0
 11
9.642231
 21
18.867349
 31
0.0
  0
LINE
  5
11B
100
AcDbEntity
  8
0
390
0
  6
CONTINUOUS
 62
     3
100
AcDbLine
 10
9.520086
 20
18.810664
 30
0.0
 11
9.585229
 21
18.840029
 31
0.0
  0
LINE
  5
11C
100
AcDbEntity
  8
0
390
0
  6
CONTINUOUS
 62
     3
100
AcDbLine
 10
9.448454
 20
18.780723
 30
0.0
 11
9.520086
 21
18.810664
 31
0.0
  0
LINE
  5
11D
100
AcDbEntity
  8
0
390
0
  6
CONTINUOUS
 62
     3
100
AcDbLine
 10
9.371983
 20
18.751675
 30
0.0
 11
9.448454
 21
18.780723
 31
0.0
  0
LINE
  5
11E
100
AcDbEntity
  8
0
390
0
  6
CONTINUOUS
 62
     3
100
AcDbLine
 10
9.292326
 20
18.724989
 30
0.0
 11
9.371983
 21
18.751675
 31
0.0
  0
LINE
  5
11F
100
AcDbEntity
  8
0
390
0
  6
CONTINUOUS
 62
     3
100
AcDbLine
 10
9.211133
 20
18.702133
 30
0.0
 11
9.292326
 21
18.724989
 31
0.0
  0
LINE
  5
120
100
AcDbEntity
  8
0
390
0
  6
CONTINUOUS
 62
     3
100
AcDbLine
 10
9.129791
 20
18.684311
 30
0.0
 11
9.211133
 21
18.702133
 31
0.0
  0
LINE
  5
121
100
AcDbEntity
  8
0
390
0
  6
CONTINUOUS
 62
     3
100
AcDbLine
 10
9.048623
 20
18.671657
 30
0.0
 11
9.129791
 21
18.684311
 31
0.0
  0
LINE
  5
122
100
AcDbEntity
  8
0
390
0
  6
CONTINUOUS
 62
     3
100
AcDbLine
 10
8.967689
 20
18.664037
 30
0.0
 11
9.048623
 21
18.671657
 31
0.0
  0
LINE
  5
123
100
AcDbEntity
  8
0
390
0
  6
CONTINUOUS
 62
     3
100
AcDbLine
 10
8.887046
 20
18.661319
 30
0.0
 11
8.967689
 21
18.664037
 31
0.0
  0
LINE
  5
124
100
AcDbEntity
  8
0
390
0
  6
CONTINUOUS
 62
     3
100
AcDbLine
 10
8.806754
 20
18.663371
 30
0.0
 11
8.887046
 21
18.661319
 31
0.0
  0
LINE
  5
125
100
AcDbEntity
  8
0
390
0
  6
CONTINUOUS
 62
     3
100
AcDbLine
 10
8.726871
 20
18.67006
 30
0.0
 11
8.806754
 21
18.663371
 31
0.0
  0
LINE
  5
126
100
AcDbEntity
  8
0
390
0
  6
CONTINUOUS
 62
     3
100
AcDbLine
 10
8.647455
 20
18.681253
 30
0.0
 11
8.726871
 21
18.67006
 31
0.0
  0
LINE
  5
127
100
AcDbEntity
  8
0
390
0
  6
CONTINUOUS
 62
     3
100
AcDbLine
 10
8.568566
 20
18.696818
 30
0.0
 11
8.647455
 21
18.681253
 31
0.0
  0
LINE
  5
128
100
AcDbEntity
  8
0
390
0
  6
CONTINUOUS
 62
     3
100
AcDbLine
 10
8.490261
 20
18.716622
 30
0.0
 11
8.568566
 21
18.696818
 31
0.0
  0
LINE
  5
129
100
AcDbEntity
  8
0
390
0
  6
CONTINUOUS
 62
     3
100
AcDbLine
 10
8.4126
 20
18.740533
 30
0.0
 11
8.490261
 21
18.716622
 31
0.0
  0
LINE
  5
12A
100
AcDbEntity
  8
0
390
0
  6
CONTINUOUS
 62
     3
100
AcDbLine
 10
8.335485
 20
18.768466
 30
0.0
 11
8.4126
 21
18.740533
 31
0.0
  0
LINE
  5
12B
100
AcDbEntity
  8
0
390
0
  6
CONTINUOUS
 62
     3
100
AcDbLine
 10
8.258199
 20
18.800526
 30
0.0
 11
8.335485
 21
18.768466
 31
0.0
  0
LINE
  5
12C
100
AcDbEntity
  8
0
390
0
  6
CONTINUOUS
 62
     3
100
AcDbLine
 10
8.179866
 20
18.836868
 30
0.0
 11
8.258199
 21
18.800526
 31
0.0
  0
LINE
  5
12D
100
AcDbEntity
  8
0
390
0
  6
CONTINUOUS
 62
     3
100
AcDbLine
 10
8.099612
 20
18.877644
 30
0.0
 11
8.179866
 21
18.836868
 31
0.0
  0
LINE
  5
12E
100
AcDbEntity
  8
0
390
0
  6
CONTINUOUS
 62
     3
100
AcDbLine
 10
8.016565
 20
18.923008
 30
0.0
 11
8.099612
 21
18.877644
 31
0.0
  0
LINE
  5
12F
100
AcDbEntity
  8
0
390
0
  6
CONTINUOUS
 62
     3
100
AcDbLine
 10
7.929848
 20
18.973115
 30
0.0
 11
8.016565
 21
18.923008
 31
0.0
  0
LINE
  5
130
100
AcDbEntity
  8
0
390
0
  6
CONTINUOUS
 62
     3
100
AcDbLine
 10
7.83859
 20
19.028117
 30
0.0
 11
7.929848
 21
18.973115
 31
0.0
  0
LINE
  5
131
100
AcDbEntity
  8
0
390
0
  6
CONTINUOUS
 62
     3
100
AcDbLine
 10
7.741914
 20
19.088169
 30
0.0
 11
7.83859
 21
19.028117
 31
0.0
  0
LINE
  5
132
100
AcDbEntity
  8
0
390
0
  6
CONTINUOUS
 62
     3
100
AcDbLine
 10
7.638948
 20
19.153423
 30
0.0
 11
7.741914
 21
19.088169
 31
0.0
  0
LINE
  5
133
100
AcDbEntity
  8
0
390
0
  6
CONTINUOUS
 62
     3
100
AcDbLine
 10
7.528817
 20
19.224033
 30
0.0
 11
7.638948
 21
19.153423
 31
0.0
  0
LINE
  5
134
100
AcDbEntity
  8
0
390
0
  6
CONTINUOUS
 62
     3
100
AcDbLine
 10
7.410655
 20
19.299429
 30
0.0
 11
7.528817
 21
19.224033
 31
0.0
  0
LINE
  5
135
100
AcDbEntity
  8
0
390
0
  6
CONTINUOUS
 62
     3
100
AcDbLine
 10
7.283634
 20
19.376139
 30
0.0
 11
7.410655
 21
19.299429
 31
0.0
  0
LINE
  5
136
100
AcDbEntity
  8
0
390
0
  6
CONTINUOUS
 62
     3
100
AcDbLine
 10
7.146932
 20
19.449966
 30
0.0
 11
7.283634
 21
19.376139
 31
0.0
  0
LINE
  5
137
100
AcDbEntity
  8
0
390
0
  6
CONTINUOUS
 62
     3
100
AcDbLine
 10
6.999728
 20
19.516716
 30
0.0
 11
7.146932
 21
19.449966
 31
0.0
  0
LINE
  5
138
100
AcDbEntity
  8
0
390
0
  6
CONTINUOUS
 62
     3
100
AcDbLine
 10
6.841202
 20
19.572192
 30
0.0
 11
6.999728
 21
19.516716
 31
0.0
  0
LINE
  5
139
100
AcDbEntity
  8
0
390
0
  6
CONTINUOUS
 62
     3
100
AcDbLine
 10
6.670532
 20
19.612197
 30
0.0
 11
6.841202
 21
19.572192
 31
0.0
  0
LINE
  5
13A
100
AcDbEntity
  8
0
390
0
  6
CONTINUOUS
 62
     3
100
AcDbLine
 10
6.486898
 20
19.632537
 30
0.0
 11
6.670532
 21
19.612197
 31
0.0
  0
LINE
  5
13B
100
AcDbEntity
  8
0
390
0
  6
CONTINUOUS
 62
     3
100
AcDbLine
 10
6.289479
 20
19.629015
 30
0.0
 11
6.486898
 21
19.632537
 31
0.0
  0
LINE
  5
13C
100
AcDbEntity
  8
0
390
0
  6
CONTINUOUS
 62
     3
100
AcDbLine
 10
6.077453
 20
19.597434
 30
0.0
 11
6.289479
 21
19.629015
 31
0.0
  0
LINE
  5
13D
100
AcDbEntity
  8
0
390
0
  6
CONTINUOUS
 62
     3
100
AcDbLine
 10
5.85
 20
19.5336
 30
0.0
 11
6.077453
 21
19.597434
 31
0.0
  0
LINE
  5
13E
100
AcDbEntity
  8
0
390
0
  6
CONTINUOUS
 62
     3
100
AcDbLine
 10
3.8384
 20
8.2271
 30
0.0
 11
7.7776
 21
7.5325
 31
0.0
  0
LINE
  5
13F
100
AcDbEntity
  8
0
390
0
  6
CONTINUOUS
 62
     3
100
AcDbLine
 10
8.1796
 20
32.8473
 30
0.0
 11
5.8185
 21
19.4573
 31
0.0
  0
LINE
  5
140
100
AcDbEntity
  8
0
390
0
  6
CONTINUOUS
 62
     3
100
AcDbLine
 10
12.1188
 20
32.1527
 30
0.0
 11
9.7578
 21
18.7627
 31
0.0
  0
ARC
  5
141
100
AcDbEntity
  8
0
390
0
  6
CONTINUOUS
 62
     3
100
AcDbCircle
 10
10.1492
 20
32.5
 30
0.0
 40
2.0
100
AcDbArc
 50
350.0001
 51
170.0001
  0
LINE
  5
142
100
AcDbEntity
  8
0
390
0
  6
CONTINUOUS
 62
     3
100
AcDbLine
 10
23.7319
 20
18.0277
 30
0.0
 11
25.46
 21
8.2271
 31
0.0
  0
LINE
  5
143
100
AcDbEntity
  8
0
390
0
  6
CONTINUOUS
 62
     3
100
AcDbLine
 10
19.7927
 20
17.3331
 30
0.0
 11
21.5208
 21
7.5325
 31
0.0
  0
LINE
  5
144
100
AcDbEntity
  8
0
390
0
  6
CONTINUOUS
 62
     3
100
AcDbLine
 10
23.676377
 20
18.126708
 30
0.0
 11
23.6823
 21
18.1336
 31
0.0
  0
LINE
  5
145
100
AcDbEntity
  8
0
390
0
  6
CONTINUOUS
 62
     3
100
AcDbLine
 10
23.659309
 20
18.107328
 30
0.0
 11
23.676377
 21
18.126708
 31
0.0
  0
LINE
  5
146
100
AcDbEntity
  8
0
390
0
  6
CONTINUOUS
 62
     3
100
AcDbLine
 10
23.632143
 20
18.077406
 30
0.0
 11
23.659309
 21
18.107328
 31
0.0
  0
LINE
  5
147
100
AcDbEntity
  8
0
390
0
  6
CONTINUOUS
 62
     3
100
AcDbLine
 10
23.595929
 20
18.038887
 30
0.0
 11
23.632143
 21
18.077406
 31
0.0
  0
LINE
  5
148
100
AcDbEntity
  8
0
390
0
  6
CONTINUOUS
 62
     3
100
AcDbLine
 10
23.551716
 20
17.993718
 30
0.0
 11
23.595929
 21
18.038887
 31
0.0
  0
LINE
  5
149
100
AcDbEntity
  8
0
390
0
  6
CONTINUOUS
 62
     3
100
AcDbLine
 10
23.500552
 20
17.943842
 30
0.0
 11
23.551716
 21
17.993718
 31
0.0
  0
LINE
  5
14A
100
AcDbEntity
  8
0
390
0
  6
CONTINUOUS
 62
     3
100
AcDbLine
 10
23.443487
 20
17.891206
 30
0.0
 11
23.500552
 21
17.943842
 31
0.0
  0
LINE
  5
14B
100
AcDbEntity
  8
0
390
0
  6
CONTINUOUS
 62
     3
100
AcDbLine
 10
23.38157
 20
17.837756
 30
0.0
 11
23.443487
 21
17.891206
 31
0.0
  0
LINE
  5
14C
100
AcDbEntity
  8
0
390
0
  6
CONTINUOUS
 62
     3
100
AcDbLine
 10
23.31585
 20
17.785436
 30
0.0
 11
23.38157
 21
17.837756
 31
0.0
  0
LINE
  5
14D
100
AcDbEntity
  8
0
390
0
  6
CONTINUOUS
 62
     3
100
AcDbLine
 10
23.247375
 20
17.736192
 30
0.0
 11
23.31585
 21
17.785436
 31
0.0
  0
LINE
  5
14E
100
AcDbEntity
  8
0
390
0
  6
CONTINUOUS
 62
     3
100
AcDbLine
 10
23.177037
 20
17.691627
 30
0.0
 11
23.247375
 21
17.736192
 31
0.0
  0
LINE
  5
14F
100
AcDbEntity
  8
0
390
0
  6
CONTINUOUS
 62
     3
100
AcDbLine
 10
23.105093
 20
17.65198
 30
0.0
 11
23.177037
 21
17.691627
 31
0.0
  0
LINE
  5
150
100
AcDbEntity
  8
0
390
0
  6
CONTINUOUS
 62
     3
100
AcDbLine
 10
23.031645
 20
17.617144
 30
0.0
 11
23.105093
 21
17.65198
 31
0.0
  0
LINE
  5
151
100
AcDbEntity
  8
0
390
0
  6
CONTINUOUS
 62
     3
100
AcDbLine
 10
22.956794
 20
17.587014
 30
0.0
 11
23.031645
 21
17.617144
 31
0.0
  0
LINE
  5
152
100
AcDbEntity
  8
0
390
0
  6
CONTINUOUS
 62
     3
100
AcDbLine
 10
22.880639
 20
17.561486
 30
0.0
 11
22.956794
 21
17.587014
 31
0.0
  0
LINE
  5
153
100
AcDbEntity
  8
0
390
0
  6
CONTINUOUS
 62
     3
100
AcDbLine
 10
22.803281
 20
17.540455
 30
0.0
 11
22.880639
 21
17.561486
 31
0.0
  0
LINE
  5
154
100
AcDbEntity
  8
0
390
0
  6
CONTINUOUS
 62
     3
100
AcDbLine
 10
22.724821
 20
17.523816
 30
0.0
 11
22.803281
 21
17.540455
 31
0.0
  0
LINE
  5
155
100
AcDbEntity
  8
0
390
0
  6
CONTINUOUS
 62
     3
100
AcDbLine
 10
22.645359
 20
17.511464
 30
0.0
 11
22.724821
 21
17.523816
 31
0.0
  0
LINE
  5
156
100
AcDbEntity
  8
0
390
0
  6
CONTINUOUS
 62
     3
100
AcDbLine
 10
22.564997
 20
17.503293
 30
0.0
 11
22.645359
 21
17.511464
 31
0.0
  0
LINE
  5
157
100
AcDbEntity
  8
0
390
0
  6
CONTINUOUS
 62
     3
100
AcDbLine
 10
22.483833
 20
17.4992
 30
0.0
 11
22.564997
 21
17.503293
 31
0.0
  0
LINE
  5
158
100
AcDbEntity
  8
0
390
0
  6
CONTINUOUS
 62
     3
100
AcDbLine
 10
22.401808
 20
17.49907
 30
0.0
 11
22.483833
 21
17.4992
 31
0.0
  0
LINE
  5
159
100
AcDbEntity
  8
0
390
0
  6
CONTINUOUS
 62
     3
100
AcDbLine
 10
22.318209
 20
17.502758
 30
0.0
 11
22.401808
 21
17.49907
 31
0.0
  0
LINE
  5
15A
100
AcDbEntity
  8
0
390
0
  6
CONTINUOUS
 62
     3
100
AcDbLine
 10
22.232162
 20
17.51011
 30
0.0
 11
22.318209
 21
17.502758
 31
0.0
  0
LINE
  5
15B
100
AcDbEntity
  8
0
390
0
  6
CONTINUOUS
 62
     3
100
AcDbLine
 10
22.142795
 20
17.520972
 30
0.0
 11
22.232162
 21
17.51011
 31
0.0
  0
LINE
  5
15C
100
AcDbEntity
  8
0
390
0
  6
CONTINUOUS
 62
     3
100
AcDbLine
 10
22.049234
 20
17.535189
 30
0.0
 11
22.142795
 21
17.520972
 31
0.0
  0
LINE
  5
15D
100
AcDbEntity
  8
0
390
0
  6
CONTINUOUS
 62
     3
100
AcDbLine
 10
21.950606
 20
17.552607
 30
0.0
 11
22.049234
 21
17.535189
 31
0.0
  0
LINE
  5
15E
100
AcDbEntity
  8
0
390
0
  6
CONTINUOUS
 62
     3
100
AcDbLine
 10
21.846035
 20
17.573072
 30
0.0
 11
21.950606
 21
17.552607
 31
0.0
  0
LINE
  5
15F
100
AcDbEntity
  8
0
390
0
  6
CONTINUOUS
 62
     3
100
AcDbLine
 10
21.73465
 20
17.59643
 30
0.0
 11
21.846035
 21
17.573072
 31
0.0
  0
LINE
  5
160
100
AcDbEntity
  8
0
390
0
  6
CONTINUOUS
 62
     3
100
AcDbLine
 10
21.615577
 20
17.622527
 30
0.0
 11
21.73465
 21
17.59643
 31
0.0
  0
LINE
  5
161
100
AcDbEntity
  8
0
390
0
  6
CONTINUOUS
 62
     3
100
AcDbLine
 10
21.487942
 20
17.651208
 30
0.0
 11
21.615577
 21
17.622527
 31
0.0
  0
LINE
  5
162
100
AcDbEntity
  8
0
390
0
  6
CONTINUOUS
 62
     3
100
AcDbLine
 10
21.351127
 20
17.681642
 30
0.0
 11
21.487942
 21
17.651208
 31
0.0
  0
LINE
  5
163
100
AcDbEntity
  8
0
390
0
  6
CONTINUOUS
 62
     3
100
AcDbLine
 10
21.205539
 20
17.710283
 30
0.0
 11
21.351127
 21
17.681642
 31
0.0
  0
LINE
  5
164
100
AcDbEntity
  8
0
390
0
  6
CONTINUOUS
 62
     3
100
AcDbLine
 10
21.05184
 20
17.732906
 30
0.0
 11
21.205539
 21
17.710283
 31
0.0
  0
LINE
  5
165
100
AcDbEntity
  8
0
390
0
  6
CONTINUOUS
 62
     3
100
AcDbLine
 10
20.890694
 20
17.745289
 30
0.0
 11
21.05184
 21
17.732906
 31
0.0
  0
LINE
  5
166
100
AcDbEntity
  8
0
390
0
  6
CONTINUOUS
 62
     3
100
AcDbLine
 10
20.722761
 20
17.743207
 30
0.0
 11
20.890694
 21
17.745289
 31
0.0
  0
LINE
  5
167
100
AcDbEntity
  8
0
390
0
  6
CONTINUOUS
 62
     3
100
AcDbLine
 10
20.548706
 20
17.722437
 30
0.0
 11
20.722761
 21
17.743207
 31
0.0
  0
LINE
  5
168
100
AcDbEntity
  8
0
390
0
  6
CONTINUOUS
 62
     3
100
AcDbLine
 10
20.369189
 20
17.678755
 30
0.0
 11
20.548706
 21
17.722437
 31
0.0
  0
LINE
  5
169
100
AcDbEntity
  8
0
390
0
  6
CONTINUOUS
 62
     3
100
AcDbLine
 10
20.184875
 20
17.607938
 30
0.0
 11
20.369189
 21
17.678755
 31
0.0
  0
LINE
  5
16A
100
AcDbEntity
  8
0
390
0
  6
CONTINUOUS
 62
     3
100
AcDbLine
 10
19.996424
 20
17.50576
 30
0.0
 11
20.184875
 21
17.607938
 31
0.0
  0
LINE
  5
16B
100
AcDbEntity
  8
0
390
0
  6
CONTINUOUS
 62
     3
100
AcDbLine
 10
19.8045
 20
17.368
 30
0.0
 11
19.996424
 21
17.50576
 31
0.0
  0
LINE
  5
16C
100
AcDbEntity
  8
0
390
0
  6
CONTINUOUS
 62
     3
100
AcDbLine
 10
25.1412
 20
7.1555
 30
0.0
 11
24.9676
 21
8.1403
 31
0.0
  0
LINE
  5
16D
100
AcDbEntity
  8
0
390
0
  6
CONTINUOUS
 62
     3
100
AcDbLine
 10
22.1868
 20
6.6345
 30
0.0
 11
22.0132
 21
7.6193
 31
0.0
  0
CIRCLE
  5
16E
100
AcDbEntity
  8
0
390
0
  6
CONTINUOUS
 62
     3
100
AcDbCircle
 10
24.0113
 20
4.9254
 30
0.0
 40
1.25
  0
CIRCLE
  5
16F
100
AcDbEntity
  8
0
390
0
  6
CONTINUOUS
 62
     3
100
AcDbCircle
 10
24.0113
 20
4.9254
 30
0.0
 40
2.5
  0
LINE
  5
170
100
AcDbEntity
  8
0
390
0
  6
CONTINUOUS
 62
     3
100
AcDbLine
 10
23.415877
 20
19.604006
 30
0.0
 11
23.4218
 21
19.6109
 31
0.0
  0
LINE
  5
171
100
AcDbEntity
  8
0
390
0
  6
CONTINUOUS
 62
     3
100
AcDbLine
 10
23.398809
 20
19.584623
 30
0.0
 11
23.415877
 21
19.604006
 31
0.0
  0
LINE
  5
172
100
AcDbEntity
  8
0
390
0
  6
CONTINUOUS
 62
     3
100
AcDbLine
 10
23.371643
 20
19.554695
 30
0.0
 11
23.398809
 21
19.584623
 31
0.0
  0
LINE
  5
173
100
AcDbEntity
  8
0
390
0
  6
CONTINUOUS
 62
     3
100
AcDbLine
 10
23.33543
 20
19.516168
 30
0.0
 11
23.371643
 21
19.554695
 31
0.0
  0
LINE
  5
174
100
AcDbEntity
  8
0
390
0
  6
CONTINUOUS
 62
     3
100
AcDbLine
 10
23.291218
 20
19.47099
 30
0.0
 11
23.33543
 21
19.516168
 31
0.0
  0
LINE
  5
175
100
AcDbEntity
  8
0
390
0
  6
CONTINUOUS
 62
     3
100
AcDbLine
 10
23.240056
 20
19.421104
 30
0.0
 11
23.291218
 21
19.47099
 31
0.0
  0
LINE
  5
176
100
AcDbEntity
  8
0
390
0
  6
CONTINUOUS
 62
     3
100
AcDbLine
 10
23.182993
 20
19.368459
 30
0.0
 11
23.240056
 21
19.421104
 31
0.0
  0
LINE
  5
177
100
AcDbEntity
  8
0
390
0
  6
CONTINUOUS
 62
     3
100
AcDbLine
 10
23.121079
 20
19.314998
 30
0.0
 11
23.182993
 21
19.368459
 31
0.0
  0
LINE
  5
178
100
AcDbEntity
  8
0
390
0
  6
CONTINUOUS
 62
     3
100
AcDbLine
 10
23.055362
 20
19.262669
 30
0.0
 11
23.121079
 21
19.314998
 31
0.0
  0
LINE
  5
179
100
AcDbEntity
  8
0
390
0
  6
CONTINUOUS
 62
     3
100
AcDbLine
 10
22.986892
 20
19.213417
 30
0.0
 11
23.055362
 21
19.262669
 31
0.0
  0
LINE
  5
17A
100
AcDbEntity
  8
0
390
0
  6
CONTINUOUS
 62
     3
100
AcDbLine
 10
22.916559
 20
19.168846
 30
0.0
 11
22.986892
 21
19.213417
 31
0.0
  0
LINE
  5
17B
100
AcDbEntity
  8
0
390
0
  6
CONTINUOUS
 62
     3
100
AcDbLine
 10
22.844621
 20
19.129193
 30
0.0
 11
22.916559
 21
19.168846
 31
0.0
  0
LINE
  5
17C
100
AcDbEntity
  8
0
390
0
  6
CONTINUOUS
 62
     3
100
AcDbLine
 10
22.77118
 20
19.094352
 30
0.0
 11
22.844621
 21
19.129193
 31
0.0
  0
LINE
  5
17D
100
AcDbEntity
  8
0
390
0
  6
CONTINUOUS
 62
     3
100
AcDbLine
 10
22.696336
 20
19.06422
 30
0.0
 11
22.77118
 21
19.094352
 31
0.0
  0
LINE
  5
17E
100
AcDbEntity
  8
0
390
0
  6
CONTINUOUS
 62
     3
100
AcDbLine
 10
22.620189
 20
19.03869
 30
0.0
 11
22.696336
 21
19.06422
 31
0.0
  0
LINE
  5
17F
100
AcDbEntity
  8
0
390
0
  6
CONTINUOUS
 62
     3
100
AcDbLine
 10
22.542838
 20
19.017657
 30
0.0
 11
22.620189
 21
19.03869
 31
0.0
  0
LINE
  5
180
100
AcDbEntity
  8
0
390
0
  6
CONTINUOUS
 62
     3
100
AcDbLine
 10
22.464386
 20
19.001017
 30
0.0
 11
22.542838
 21
19.017657
 31
0.0
  0
LINE
  5
181
100
AcDbEntity
  8
0
390
0
  6
CONTINUOUS
 62
     3
100
AcDbLine
 10
22.384931
 20
18.988664
 30
0.0
 11
22.464386
 21
19.001017
 31
0.0
  0
LINE
  5
182
100
AcDbEntity
  8
0
390
0
  6
CONTINUOUS
 62
     3
100
AcDbLine
 10
22.304574
 20
18.980494
 30
0.0
 11
22.384931
 21
18.988664
 31
0.0
  0
LINE
  5
183
100
AcDbEntity
  8
0
390
0
  6
CONTINUOUS
 62
     3
100
AcDbLine
 10
22.223417
 20
18.9764
 30
0.0
 11
22.304574
 21
18.980494
 31
0.0
  0
LINE
  5
184
100
AcDbEntity
  8
0
390
0
  6
CONTINUOUS
 62
     3
100
AcDbLine
 10
22.141396
 20
18.97627
 30
0.0
 11
22.223417
 21
18.9764
 31
0.0
  0
LINE
  5
185
100
AcDbEntity
  8
0
390
0
  6
CONTINUOUS
 62
     3
100
AcDbLine
 10
22.0578
 20
18.979958
 30
0.0
 11
22.141396
 21
18.97627
 31
0.0
  0
LINE
  5
186
100
AcDbEntity
  8
0
390
0
  6
CONTINUOUS
 62
     3
100
AcDbLine
 10
21.971756
 20
18.98731
 30
0.0
 11
22.0578
 21
18.979958
 31
0.0
  0
LINE
  5
187
100
AcDbEntity
  8
0
390
0
  6
CONTINUOUS
 62
     3
100
AcDbLine
 10
21.88239
 20
18.998172
 30
0.0
 11
21.971756
 21
18.98731
 31
0.0
  0
LINE
  5
188
100
AcDbEntity
  8
0
390
0
  6
CONTINUOUS
 62
     3
100
AcDbLine
 10
21.788829
 20
19.012389
 30
0.0
 11
21.88239
 21
18.998172
 31
0.0
  0
LINE
  5
189
100
AcDbEntity
  8
0
390
0
  6
CONTINUOUS
 62
     3
100
AcDbLine
 10
21.690199
 20
19.029807
 30
0.0
 11
21.788829
 21
19.012389
 31
0.0
  0
LINE
  5
18A
100
AcDbEntity
  8
0
390
0
  6
CONTINUOUS
 62
     3
100
AcDbLine
 10
21.585626
 20
19.050272
 30
0.0
 11
21.690199
 21
19.029807
 31
0.0
  0
LINE
  5
18B
100
AcDbEntity
  8
0
390
0
  6
CONTINUOUS
 62
     3
100
AcDbLine
 10
21.474237
 20
19.07363
 30
0.0
 11
21.585626
 21
19.050272
 31
0.0
  0
LINE
  5
18C
100
AcDbEntity
  8
0
390
0
  6
CONTINUOUS
 62
     3
100
AcDbLine
 10
21.355159
 20
19.099727
 30
0.0
 11
21.474237
 21
19.07363
 31
0.0
  0
LINE
  5
18D
100
AcDbEntity
  8
0
390
0
  6
CONTINUOUS
 62
     3
100
AcDbLine
 10
21.227517
 20
19.128408
 30
0.0
 11
21.355159
 21
19.099727
 31
0.0
  0
LINE
  5
18E
100
AcDbEntity
  8
0
390
0
  6
CONTINUOUS
 62
     3
100
AcDbLine
 10
21.090694
 20
19.158842
 30
0.0
 11
21.227517
 21
19.128408
 31
0.0
  0
LINE
  5
18F
100
AcDbEntity
  8
0
390
0
  6
CONTINUOUS
 62
     3
100
AcDbLine
 10
20.945097
 20
19.187483
 30
0.0
 11
21.090694
 21
19.158842
 31
0.0
  0
LINE
  5
190
100
AcDbEntity
  8
0
390
0
  6
CONTINUOUS
 62
     3
100
AcDbLine
 10
20.791388
 20
19.210106
 30
0.0
 11
20.945097
 21
19.187483
 31
0.0
  0
LINE
  5
191
100
AcDbEntity
  8
0
390
0
  6
CONTINUOUS
 62
     3
100
AcDbLine
 10
20.630232
 20
19.222489
 30
0.0
 11
20.791388
 21
19.210106
 31
0.0
  0
LINE
  5
192
100
AcDbEntity
  8
0
390
0
  6
CONTINUOUS
 62
     3
100
AcDbLine
 10
20.46229
 20
19.220407
 30
0.0
 11
20.630232
 21
19.222489
 31
0.0
  0
LINE
  5
193
100
AcDbEntity
  8
0
390
0
  6
CONTINUOUS
 62
     3
100
AcDbLine
 10
20.288225
 20
19.199637
 30
0.0
 11
20.46229
 21
19.220407
 31
0.0
  0
LINE
  5
194
100
AcDbEntity
  8
0
390
0
  6
CONTINUOUS
 62
     3
100
AcDbLine
 10
20.108701
 20
19.155955
 30
0.0
 11
20.288225
 21
19.199637
 31
0.0
  0
LINE
  5
195
100
AcDbEntity
  8
0
390
0
  6
CONTINUOUS
 62
     3
100
AcDbLine
 10
19.92438
 20
19.085138
 30
0.0
 11
20.108701
 21
19.155955
 31
0.0
  0
LINE
  5
196
100
AcDbEntity
  8
0
390
0
  6
CONTINUOUS
 62
     3
100
AcDbLine
 10
19.735926
 20
18.98296
 30
0.0
 11
19.92438
 21
19.085138
 31
0.0
  0
LINE
  5
197
100
AcDbEntity
  8
0
390
0
  6
CONTINUOUS
 62
     3
100
AcDbLine
 10
19.544
 20
18.8452
 30
0.0
 11
19.735926
 21
18.98296
 31
0.0
  0
LINE
  5
198
100
AcDbEntity
  8
0
390
0
  6
CONTINUOUS
 62
     3
100
AcDbLine
 10
21.5208
 20
7.5325
 30
0.0
 11
25.46
 21
8.2271
 31
0.0
  0
LINE
  5
199
100
AcDbEntity
  8
0
390
0
  6
CONTINUOUS
 62
     3
100
AcDbLine
 10
17.1796
 20
32.1527
 30
0.0
 11
19.5406
 21
18.7627
 31
0.0
  0
LINE
  5
19A
100
AcDbEntity
  8
0
390
0
  6
CONTINUOUS
 62
     3
100
AcDbLine
 10
21.1188
 20
32.8473
 30
0.0
 11
23.4798
 21
19.4573
 31
0.0
  0
ARC
  5
19B
100
AcDbEntity
  8
0
390
0
  6
CONTINUOUS
 62
     3
100
AcDbCircle
 10
19.1492
 20
32.5
 30
0.0
 40
2.0
100
AcDbArc
 50
9.9999
 51
189.9999
  0
ARC
  5
19C
100
AcDbEntity
  8
0
390
0
  6
CONTINUOUS
 62
     3
100
AcDbCircle
 10
14.6492
 20
35.0
 30
0.0
 40
8.5001
100
AcDbArc
 50
324.4553
 51
0.0
  0
ARC
  5
19D
100
AcDbEntity
  8
0
390
0
  6
CONTINUOUS
 62
     3
100
AcDbCircle
 10
14.6492
 20
35.0
 30
0.0
 40
8.5
100
AcDbArc
 50
283.4891
 51
293.7433
  0
ARC
  5
19E
100
AcDbEntity
  8
0
390
0
  6
CONTINUOUS
 62
     3
100
AcDbCircle
 10
14.6492
 20
35.0
 30
0.0
 40
8.5
100
AcDbArc
 50
246.4116
 51
256.5409
  0
LINE
  5
19F
100
AcDbEntity
  8
0
390
0
  6
CONTINUOUS
 62
     3
100
AcDbLine
 10
16.6492
 20
14.9517
 30
0.0
 11
16.6492
 21
5.0
 31
0.0
  0
LINE
  5
1A0
100
AcDbEntity
  8
0
390
0
  6
CONTINUOUS
 62
     3
100
AcDbLine
 10
12.6492
 20
14.9517
 30
0.0
 11
12.6492
 21
5.0
 31
0.0
  0
LINE
  5
1A1
100
AcDbEntity
  8
0
390
0
  6
CONTINUOUS
 62
     3
100
AcDbLine
 10
16.61167
 20
15.058941
 30
0.0
 11
16.6187
 21
15.0647
 31
0.0
  0
LINE
  5
1A2
100
AcDbEntity
  8
0
390
0
  6
CONTINUOUS
 62
     3
100
AcDbLine
 10
16.591494
 20
15.04282
 30
0.0
 11
16.61167
 21
15.058941
 31
0.0
  0
LINE
  5
1A3
100
AcDbEntity
  8
0
390
0
  6
CONTINUOUS
 62
     3
100
AcDbLine
 10
16.559543
 20
15.01807
 30
0.0
 11
16.591494
 21
15.04282
 31
0.0
  0
LINE
  5
1A4
100
AcDbEntity
  8
0
390
0
  6
CONTINUOUS
 62
     3
100
AcDbLine
 10
16.517189
 20
14.986425
 30
0.0
 11
16.559543
 21
15.01807
 31
0.0
  0
LINE
  5
1A5
100
AcDbEntity
  8
0
390
0
  6
CONTINUOUS
 62
     3
100
AcDbLine
 10
16.465801
 20
14.949619
 30
0.0
 11
16.517189
 21
14.986425
 31
0.0
  0
LINE
  5
1A6
100
AcDbEntity
  8
0
390
0
  6
CONTINUOUS
 62
     3
100
AcDbLine
 10
16.406752
 20
14.909385
 30
0.0
 11
16.465801
 21
14.949619
 31
0.0
  0
LINE
  5
1A7
100
AcDbEntity
  8
0
390
0
  6
CONTINUOUS
 62
     3
100
AcDbLine
 10
16.341412
 20
14.867458
 30
0.0
 11
16.406752
 21
14.909385
 31
0.0
  0
LINE
  5
1A8
100
AcDbEntity
  8
0
390
0
  6
CONTINUOUS
 62
     3
100
AcDbLine
 10
16.271152
 20
14.82557
 30
0.0
 11
16.341412
 21
14.867458
 31
0.0
  0
LINE
  5
1A9
100
AcDbEntity
  8
0
390
0
  6
CONTINUOUS
 62
     3
100
AcDbLine
 10
16.197344
 20
14.785457
 30
0.0
 11
16.271152
 21
14.82557
 31
0.0
  0
LINE
  5
1AA
100
AcDbEntity
  8
0
390
0
  6
CONTINUOUS
 62
     3
100
AcDbLine
 10
16.121358
 20
14.74885
 30
0.0
 11
16.197344
 21
14.785457
 31
0.0
  0
LINE
  5
1AB
100
AcDbEntity
  8
0
390
0
  6
CONTINUOUS
 62
     3
100
AcDbLine
 10
16.044351
 20
14.717175
 30
0.0
 11
16.121358
 21
14.74885
 31
0.0
  0
LINE
  5
1AC
100
AcDbEntity
  8
0
390
0
  6
CONTINUOUS
 62
     3
100
AcDbLine
 10
15.966618
 20
14.690621
 30
0.0
 11
16.044351
 21
14.717175
 31
0.0
  0
LINE
  5
1AD
100
AcDbEntity
  8
0
390
0
  6
CONTINUOUS
 62
     3
100
AcDbLine
 10
15.88824
 20
14.669066
 30
0.0
 11
15.966618
 21
14.690621
 31
0.0
  0
LINE
  5
1AE
100
AcDbEntity
  8
0
390
0
  6
CONTINUOUS
 62
     3
100
AcDbLine
 10
15.809297
 20
14.652391
 30
0.0
 11
15.88824
 21
14.669066
 31
0.0
  0
LINE
  5
1AF
100
AcDbEntity
  8
0
390
0
  6
CONTINUOUS
 62
     3
100
AcDbLine
 10
15.72987
 20
14.640473
 30
0.0
 11
15.809297
 21
14.652391
 31
0.0
  0
LINE
  5
1B0
100
AcDbEntity
  8
0
390
0
  6
CONTINUOUS
 62
     3
100
AcDbLine
 10
15.65004
 20
14.633193
 30
0.0
 11
15.72987
 21
14.640473
 31
0.0
  0
LINE
  5
1B1
100
AcDbEntity
  8
0
390
0
  6
CONTINUOUS
 62
     3
100
AcDbLine
 10
15.569887
 20
14.630429
 30
0.0
 11
15.65004
 21
14.633193
 31
0.0
  0
LINE
  5
1B2
100
AcDbEntity
  8
0
390
0
  6
CONTINUOUS
 62
     7
100
AcDbLine
 10
15.489492
 20
14.632062
 30
0.0
 11
15.569887
 21
14.630429
 31
0.0
  0
LINE
  5
1B3
100
AcDbEntity
  8
0
390
0
  6
CONTINUOUS
 62
     7
100
AcDbLine
 10
15.408937
 20
14.63797
 30
0.0
 11
15.489492
 21
14.632062
 31
0.0
  0
LINE
  5
1B4
100
AcDbEntity
  8
0
390
0
  6
CONTINUOUS
 62
     7
100
AcDbLine
 10
15.3283
 20
14.648033
 30
0.0
 11
15.408937
 21
14.63797
 31
0.0
  0
LINE
  5
1B5
100
AcDbEntity
  8
0
390
0
  6
CONTINUOUS
 62
     7
100
AcDbLine
 10
15.247502
 20
14.66215
 30
0.0
 11
15.3283
 21
14.648033
 31
0.0
  0
LINE
  5
1B6
100
AcDbEntity
  8
0
390
0
  6
CONTINUOUS
 62
     7
100
AcDbLine
 10
15.165817
 20
14.680301
 30
0.0
 11
15.247502
 21
14.66215
 31
0.0
  0
LINE
  5
1B7
100
AcDbEntity
  8
0
390
0
  6
CONTINUOUS
 62
     7
100
AcDbLine
 10
15.082358
 20
14.702485
 30
0.0
 11
15.165817
 21
14.680301
 31
0.0
  0
LINE
  5
1B8
100
AcDbEntity
  8
0
390
0
  6
CONTINUOUS
 62
     7
100
AcDbLine
 10
14.996237
 20
14.728701
 30
0.0
 11
15.082358
 21
14.702485
 31
0.0
  0
LINE
  5
1B9
100
AcDbEntity
  8
0
390
0
  6
CONTINUOUS
 62
     7
100
AcDbLine
 10
14.906568
 20
14.75895
 30
0.0
 11
14.996237
 21
14.728701
 31
0.0
  0
LINE
  5
1BA
100
AcDbEntity
  8
0
390
0
  6
CONTINUOUS
 62
     7
100
AcDbLine
 10
14.812463
 20
14.793231
 30
0.0
 11
14.906568
 21
14.75895
 31
0.0
  0
LINE
  5
1BB
100
AcDbEntity
  8
0
390
0
  6
CONTINUOUS
 62
     7
100
AcDbLine
 10
14.713035
 20
14.831543
 30
0.0
 11
14.812463
 21
14.793231
 31
0.0
  0
LINE
  5
1BC
100
AcDbEntity
  8
0
390
0
  6
CONTINUOUS
 62
     7
100
AcDbLine
 10
14.607397
 20
14.873887
 30
0.0
 11
14.713035
 21
14.831543
 31
0.0
  0
LINE
  5
1BD
100
AcDbEntity
  8
0
390
0
  6
CONTINUOUS
 62
     7
100
AcDbLine
 10
14.494661
 20
14.920262
 30
0.0
 11
14.607397
 21
14.873887
 31
0.0
  0
LINE
  5
1BE
100
AcDbEntity
  8
0
390
0
  6
CONTINUOUS
 62
     7
100
AcDbLine
 10
14.373942
 20
14.970667
 30
0.0
 11
14.494661
 21
14.920262
 31
0.0
  0
LINE
  5
1BF
100
AcDbEntity
  8
0
390
0
  6
CONTINUOUS
 62
     7
100
AcDbLine
 10
14.244485
 20
15.024389
 30
0.0
 11
14.373942
 21
14.970667
 31
0.0
  0
LINE
  5
1C0
100
AcDbEntity
  8
0
390
0
  6
CONTINUOUS
 62
     7
100
AcDbLine
 10
14.106077
 20
15.077869
 30
0.0
 11
14.244485
 21
15.024389
 31
0.0
  0
LINE
  5
1C1
100
AcDbEntity
  8
0
390
0
  6
CONTINUOUS
 62
     7
100
AcDbLine
 10
13.958636
 20
15.12683
 30
0.0
 11
14.106077
 21
15.077869
 31
0.0
  0
LINE
  5
1C2
100
AcDbEntity
  8
0
390
0
  6
CONTINUOUS
 62
     7
100
AcDbLine
 10
13.802083
 20
15.167002
 30
0.0
 11
13.958636
 21
15.12683
 31
0.0
  0
LINE
  5
1C3
100
AcDbEntity
  8
0
390
0
  6
CONTINUOUS
 62
     3
100
AcDbLine
 10
13.636336
 20
15.194108
 30
0.0
 11
13.802083
 21
15.167002
 31
0.0
  0
LINE
  5
1C4
100
AcDbEntity
  8
0
390
0
  6
CONTINUOUS
 62
     3
100
AcDbLine
 10
13.461317
 20
15.203877
 30
0.0
 11
13.636336
 21
15.194108
 31
0.0
  0
LINE
  5
1C5
100
AcDbEntity
  8
0
390
0
  6
CONTINUOUS
 62
     3
100
AcDbLine
 10
13.276944
 20
15.192034
 30
0.0
 11
13.461317
 21
15.203877
 31
0.0
  0
LINE
  5
1C6
100
AcDbEntity
  8
0
390
0
  6
CONTINUOUS
 62
     3
100
AcDbLine
 10
13.083137
 20
15.154306
 30
0.0
 11
13.276944
 21
15.192034
 31
0.0
  0
LINE
  5
1C7
100
AcDbEntity
  8
0
390
0
  6
CONTINUOUS
 62
     3
100
AcDbLine
 10
12.879816
 20
15.086419
 30
0.0
 11
13.083137
 21
15.154306
 31
0.0
  0
LINE
  5
1C8
100
AcDbEntity
  8
0
390
0
  6
CONTINUOUS
 62
     3
100
AcDbLine
 10
12.6669
 20
14.9841
 30
0.0
 11
12.879816
 21
15.086419
 31
0.0
  0
LINE
  5
1C9
100
AcDbEntity
  8
0
390
0
  6
CONTINUOUS
 62
     3
100
AcDbLine
 10
16.1492
 20
4.0
 30
0.0
 11
16.1492
 21
5.0
 31
0.0
  0
LINE
  5
1CA
100
AcDbEntity
  8
0
390
0
  6
CONTINUOUS
 62
     3
100
AcDbLine
 10
13.1492
 20
4.0
 30
0.0
 11
13.1492
 21
5.0
 31
0.0
  0
CIRCLE
  5
1CB
100
AcDbEntity
  8
0
390
0
  6
CONTINUOUS
 62
     3
100
AcDbCircle
 10
14.6492
 20
2.0
 30
0.0
 40
1.25
  0
CIRCLE
  5
1CC
100
AcDbEntity
  8
0
390
0
  6
CONTINUOUS
 62
     3
100
AcDbCircle
 10
14.6492
 20
2.0
 30
0.0
 40
2.5
  0
LINE
  5
1CD
100
AcDbEntity
  8
0
390
0
  6
CONTINUOUS
 62
     3
100
AcDbLine
 10
16.61167
 20
16.558941
 30
0.0
 11
16.6187
 21
16.5647
 31
0.0
  0
LINE
  5
1CE
100
AcDbEntity
  8
0
390
0
  6
CONTINUOUS
 62
     3
100
AcDbLine
 10
16.591494
 20
16.54282
 30
0.0
 11
16.61167
 21
16.558941
 31
0.0
  0
LINE
  5
1CF
100
AcDbEntity
  8
0
390
0
  6
CONTINUOUS
 62
     3
100
AcDbLine
 10
16.559543
 20
16.51807
 30
0.0
 11
16.591494
 21
16.54282
 31
0.0
  0
LINE
  5
1D0
100
AcDbEntity
  8
0
390
0
  6
CONTINUOUS
 62
     3
100
AcDbLine
 10
16.517189
 20
16.486425
 30
0.0
 11
16.559543
 21
16.51807
 31
0.0
  0
LINE
  5
1D1
100
AcDbEntity
  8
0
390
0
  6
CONTINUOUS
 62
     3
100
AcDbLine
 10
16.465801
 20
16.449619
 30
0.0
 11
16.517189
 21
16.486425
 31
0.0
  0
LINE
  5
1D2
100
AcDbEntity
  8
0
390
0
  6
CONTINUOUS
 62
     3
100
AcDbLine
 10
16.406752
 20
16.409385
 30
0.0
 11
16.465801
 21
16.449619
 31
0.0
  0
LINE
  5
1D3
100
AcDbEntity
  8
0
390
0
  6
CONTINUOUS
 62
     3
100
AcDbLine
 10
16.341412
 20
16.367458
 30
0.0
 11
16.406752
 21
16.409385
 31
0.0
  0
LINE
  5
1D4
100
AcDbEntity
  8
0
390
0
  6
CONTINUOUS
 62
     3
100
AcDbLine
 10
16.271152
 20
16.32557
 30
0.0
 11
16.341412
 21
16.367458
 31
0.0
  0
LINE
  5
1D5
100
AcDbEntity
  8
0
390
0
  6
CONTINUOUS
 62
     3
100
AcDbLine
 10
16.197344
 20
16.285457
 30
0.0
 11
16.271152
 21
16.32557
 31
0.0
  0
LINE
  5
1D6
100
AcDbEntity
  8
0
390
0
  6
CONTINUOUS
 62
     3
100
AcDbLine
 10
16.121358
 20
16.24885
 30
0.0
 11
16.197344
 21
16.285457
 31
0.0
  0
LINE
  5
1D7
100
AcDbEntity
  8
0
390
0
  6
CONTINUOUS
 62
     3
100
AcDbLine
 10
16.044351
 20
16.217175
 30
0.0
 11
16.121358
 21
16.24885
 31
0.0
  0
LINE
  5
1D8
100
AcDbEntity
  8
0
390
0
  6
CONTINUOUS
 62
     3
100
AcDbLine
 10
15.966618
 20
16.190621
 30
0.0
 11
16.044351
 21
16.217175
 31
0.0
  0
LINE
  5
1D9
100
AcDbEntity
  8
0
390
0
  6
CONTINUOUS
 62
     3
100
AcDbLine
 10
15.88824
 20
16.169066
 30
0.0
 11
15.966618
 21
16.190621
 31
0.0
  0
LINE
  5
1DA
100
AcDbEntity
  8
0
390
0
  6
CONTINUOUS
 62
     3
100
AcDbLine
 10
15.809297
 20
16.152391
 30
0.0
 11
15.88824
 21
16.169066
 31
0.0
  0
LINE
  5
1DB
100
AcDbEntity
  8
0
390
0
  6
CONTINUOUS
 62
     3
100
AcDbLine
 10
15.72987
 20
16.140473
 30
0.0
 11
15.809297
 21
16.152391
 31
0.0
  0
LINE
  5
1DC
100
AcDbEntity
  8
0
390
0
  6
CONTINUOUS
 62
     3
100
AcDbLine
 10
15.65004
 20
16.133193
 30
0.0
 11
15.72987
 21
16.140473
 31
0.0
  0
LINE
  5
1DD
100
AcDbEntity
  8
0
390
0
  6
CONTINUOUS
 62
     3
100
AcDbLine
 10
15.569887
 20
16.130429
 30
0.0
 11
15.65004
 21
16.133193
 31
0.0
  0
LINE
  5
1DE
100
AcDbEntity
  8
0
390
0
  6
CONTINUOUS
 62
     7
100
AcDbLine
 10
15.489492
 20
16.132062
 30
0.0
 11
15.569887
 21
16.130429
 31
0.0
  0
LINE
  5
1DF
100
AcDbEntity
  8
0
390
0
  6
CONTINUOUS
 62
     7
100
AcDbLine
 10
15.408937
 20
16.13797
 30
0.0
 11
15.489492
 21
16.132062
 31
0.0
  0
LINE
  5
1E0
100
AcDbEntity
  8
0
390
0
  6
CONTINUOUS
 62
     7
100
AcDbLine
 10
15.3283
 20
16.148033
 30
0.0
 11
15.408937
 21
16.13797
 31
0.0
  0
LINE
  5
1E1
100
AcDbEntity
  8
0
390
0
  6
CONTINUOUS
 62
     7
100
AcDbLine
 10
15.247502
 20
16.16215
 30
0.0
 11
15.3283
 21
16.148033
 31
0.0
  0
LINE
  5
1E2
100
AcDbEntity
  8
0
390
0
  6
CONTINUOUS
 62
     7
100
AcDbLine
 10
15.165817
 20
16.180301
 30
0.0
 11
15.247502
 21
16.16215
 31
0.0
  0
LINE
  5
1E3
100
AcDbEntity
  8
0
390
0
  6
CONTINUOUS
 62
     7
100
AcDbLine
 10
15.082358
 20
16.202485
 30
0.0
 11
15.165817
 21
16.180301
 31
0.0
  0
LINE
  5
1E4
100
AcDbEntity
  8
0
390
0
  6
CONTINUOUS
 62
     7
100
AcDbLine
 10
14.996237
 20
16.228701
 30
0.0
 11
15.082358
 21
16.202485
 31
0.0
  0
LINE
  5
1E5
100
AcDbEntity
  8
0
390
0
  6
CONTINUOUS
 62
     7
100
AcDbLine
 10
14.906568
 20
16.25895
 30
0.0
 11
14.996237
 21
16.228701
 31
0.0
  0
LINE
  5
1E6
100
AcDbEntity
  8
0
390
0
  6
CONTINUOUS
 62
     7
100
AcDbLine
 10
14.812463
 20
16.293231
 30
0.0
 11
14.906568
 21
16.25895
 31
0.0
  0
LINE
  5
1E7
100
AcDbEntity
  8
0
390
0
  6
CONTINUOUS
 62
     7
100
AcDbLine
 10
14.713035
 20
16.331543
 30
0.0
 11
14.812463
 21
16.293231
 31
0.0
  0
LINE
  5
1E8
100
AcDbEntity
  8
0
390
0
  6
CONTINUOUS
 62
     7
100
AcDbLine
 10
14.607397
 20
16.373887
 30
0.0
 11
14.713035
 21
16.331543
 31
0.0
  0
LINE
  5
1E9
100
AcDbEntity
  8
0
390
0
  6
CONTINUOUS
 62
     7
100
AcDbLine
 10
14.494661
 20
16.420262
 30
0.0
 11
14.607397
 21
16.373887
 31
0.0
  0
LINE
  5
1EA
100
AcDbEntity
  8
0
390
0
  6
CONTINUOUS
 62
     7
100
AcDbLine
 10
14.373942
 20
16.470667
 30
0.0
 11
14.494661
 21
16.420262
 31
0.0
  0
LINE
  5
1EB
100
AcDbEntity
  8
0
390
0
  6
CONTINUOUS
 62
     7
100
AcDbLine
 10
14.244485
 20
16.524389
 30
0.0
 11
14.373942
 21
16.470667
 31
0.0
  0
LINE
  5
1EC
100
AcDbEntity
  8
0
390
0
  6
CONTINUOUS
 62
     7
100
AcDbLine
 10
14.106077
 20
16.577869
 30
0.0
 11
14.244485
 21
16.524389
 31
0.0
  0
LINE
  5
1ED
100
AcDbEntity
  8
0
390
0
  6
CONTINUOUS
 62
     7
100
AcDbLine
 10
13.958636
 20
16.62683
 30
0.0
 11
14.106077
 21
16.577869
 31
0.0
  0
LINE
  5
1EE
100
AcDbEntity
  8
0
390
0
  6
CONTINUOUS
 62
     7
100
AcDbLine
 10
13.802083
 20
16.667002
 30
0.0
 11
13.958636
 21
16.62683
 31
0.0
  0
LINE
  5
1EF
100
AcDbEntity
  8
0
390
0
  6
CONTINUOUS
 62
     3
100
AcDbLine
 10
13.636336
 20
16.694108
 30
0.0
 11
13.802083
 21
16.667002
 31
0.0
  0
LINE
  5
1F0
100
AcDbEntity
  8
0
390
0
  6
CONTINUOUS
 62
     3
100
AcDbLine
 10
13.461317
 20
16.703877
 30
0.0
 11
13.636336
 21
16.694108
 31
0.0
  0
LINE
  5
1F1
100
AcDbEntity
  8
0
390
0
  6
CONTINUOUS
 62
     3
100
AcDbLine
 10
13.276944
 20
16.692034
 30
0.0
 11
13.461317
 21
16.703877
 31
0.0
  0
LINE
  5
1F2
100
AcDbEntity
  8
0
390
0
  6
CONTINUOUS
 62
     3
100
AcDbLine
 10
13.083137
 20
16.654306
 30
0.0
 11
13.276944
 21
16.692034
 31
0.0
  0
LINE
  5
1F3
100
AcDbEntity
  8
0
390
0
  6
CONTINUOUS
 62
     3
100
AcDbLine
 10
12.879816
 20
16.586419
 30
0.0
 11
13.083137
 21
16.654306
 31
0.0
  0
LINE
  5
1F4
100
AcDbEntity
  8
0
390
0
  6
CONTINUOUS
 62
     3
100
AcDbLine
 10
12.6669
 20
16.4841
 30
0.0
 11
12.879816
 21
16.586419
 31
0.0
  0
LINE
  5
1F5
100
AcDbEntity
  8
0
390
0
  6
CONTINUOUS
 62
     3
100
AcDbLine
 10
12.6492
 20
5.0
 30
0.0
 11
16.6492
 21
5.0
 31
0.0
  0
LINE
  5
1F6
100
AcDbEntity
  8
0
390
0
  6
CONTINUOUS
 62
     3
100
AcDbLine
 10
12.6492
 20
35.0
 30
0.0
 11
12.6492
 21
16.4035
 31
0.0
  0
LINE
  5
1F7
100
AcDbEntity
  8
0
390
0
  6
CONTINUOUS
 62
     3
100
AcDbLine
 10
16.6492
 20
35.0
 30
0.0
 11
16.6492
 21
16.4035
 31
0.0
  0
ARC
  5
1F8
100
AcDbEntity
  8
0
390
0
  6
CONTINUOUS
 62
     3
100
AcDbCircle
 10
14.6492
 20
35.0
 30
0.0
 40
2.0
100
AcDbArc
 50
0.0
 51
180.0
  0
ARC
  5
1F9
100
AcDbEntity
  8
0
390
0
  6
CONTINUOUS
 62
     3
100
AcDbCircle
 10
14.6492
 20
35.0
 30
0.0
 40
8.5
100
AcDbArc
 50
0.0
 51
216.5823
  0
LINE
  5
1FA
100
AcDbEntity
  8
0
390
0
  6
CONTINUOUS
 62
     7
100
AcDbLine
 10
-15.3991
 20
0.75
 30
0.0
 11
-17.3991
 21
0.75
 31
0.0
  0
LINE
  5
1FB
100
AcDbEntity
  8
0
390
0
  6
CONTINUOUS
 62
     7
100
AcDbLine
 10
-15.3991
 20
-0.75
 30
0.0
 11
-17.3991
 21
-0.75
 31
0.0
  0
LINE
  5
1FC
100
AcDbEntity
  8
0
390
0
  6
CONTINUOUS
 62
     7
100
AcDbLine
 10
-13.8991
 20
-0.75
 30
0.0
 11
-13.8991
 21
-2.75
 31
0.0
  0
LINE
  5
1FD
100
AcDbEntity
  8
0
390
0
  6
CONTINUOUS
 62
     7
100
AcDbLine
 10
-15.3991
 20
-0.75
 30
0.0
 11
-15.3991
 21
-2.75
 31
0.0
  0
LINE
  5
1FE
100
AcDbEntity
  8
0
390
0
  6
CONTINUOUS
 62
     7
100
AcDbLine
 10
-13.8991
 20
2.75
 30
0.0
 11
-15.3991
 21
2.75
 31
0.0
  0
LINE
  5
1FF
100
AcDbEntity
  8
0
390
0
  6
CONTINUOUS
 62
     7
100
AcDbLine
 10
-15.3991
 20
-2.75
 30
0.0
 11
-13.8991
 21
-2.75
 31
0.0
  0
LINE
  5
200
100
AcDbEntity
  8
0
390
0
  6
CONTINUOUS
 62
     7
100
AcDbLine
 10
-13.8991
 20
2.75
 30
0.0
 11
-13.8991
 21
0.75
 31
0.0
  0
LINE
  5
201
100
AcDbEntity
  8
0
390
0
  6
CONTINUOUS
 62
     7
100
AcDbLine
 10
-15.3991
 20
2.75
 30
0.0
 11
-15.3991
 21
0.75
 31
0.0
  0
LINE
  5
202
100
AcDbEntity
  8
0
390
0
  6
CONTINUOUS
 62
     7
100
AcDbLine
 10
-11.8991
 20
-0.75
 30
0.0
 11
-11.8991
 21
0.75
 31
0.0
  0
LINE
  5
203
100
AcDbEntity
  8
0
390
0
  6
CONTINUOUS
 62
     7
100
AcDbLine
 10
-17.3991
 20
0.75
 30
0.0
 11
-17.3991
 21
-0.75
 31
0.0
  0
LINE
  5
204
100
AcDbEntity
  8
0
390
0
  6
CONTINUOUS
 62
     7
100
AcDbLine
 10
-11.8991
 20
-0.75
 30
0.0
 11
-13.8991
 21
-0.75
 31
0.0
  0
LINE
  5
205
100
AcDbEntity
  8
0
390
0
  6
CONTINUOUS
 62
     7
100
AcDbLine
 10
-11.8991
 20
0.75
 30
0.0
 11
-13.8991
 21
0.75
 31
0.0
  0
CIRCLE
  5
206
100
AcDbEntity
  8
0
390
0
  6
CONTINUOUS
 62
     7
100
AcDbCircle
 10
-14.6491
 20
0.0
 30
0.0
 40
4.5
  0
CIRCLE
  5
207
100
AcDbEntity
  8
0
390
0
  6
CONTINUOUS
 62
     7
100
AcDbCircle
 10
-14.6491
 20
0.0
 30
0.0
 40
5.75
  0
LINE
  5
208
100
AcDbEntity
  8
0
390
0
  6
CENTER
 62
     7
100
AcDbLine
 10
26.2034
 20
35.0
 30
0.0
 11
3.3955
 21
35.0
 31
0.0
  0
LINE
  5
209
100
AcDbEntity
  8
0
390
0
  6
CENTER
 62
     7
100
AcDbLine
 10
14.6492
 20
-1.9409
 30
0.0
 11
14.6492
 21
45.1906
 31
0.0
  0
LINE
  5
20A
100
AcDbEntity
  8
0
390
0
  6
CENTER
 62
     7
100
AcDbLine
 10
-14.6491
 20
9.9533
 30
0.0
 11
-14.6491
 21
-9.5964
 31
0.0
  0
LINE
  5
20B
100
AcDbEntity
  8
0
390
0
  6
CENTER
 62
     7
100
AcDbLine
 10
59.5963
 20
0.0
 30
0.0
 11
-60.1856
 21
0.0
 31
0.0
  0
LINE
  5
20C
100
AcDbEntity
  8
0
390
0
  6
CONTINUOUS
 62
     3
100
AcDbLine
 10
56.6
 20
56.0
 30
0.0
 11
56.6
 21
-61.0
 31
0.0
  0
LINE
  5
20D
100
AcDbEntity
  8
0
390
0
  6
CONTINUOUS
 62
     3
100
AcDbLine
 10
-56.6
 20
-61.0
 30
0.0
 11
-56.6
 21
56.0
 31
0.0
  0
LINE
  5
20E
100
AcDbEntity
  8
0
390
0
  6
CONTINUOUS
 62
     3
100
AcDbLine
 10
-7.0
 20
-99.9079
 30
0.0
 11
-7.0
 21
-101.0
 31
0.0
  0
LINE
  5
20F
100
AcDbEntity
  8
0
390
0
  6
CONTINUOUS
 62
     3
100
AcDbLine
 10
7.0
 20
-98.0963
 30
0.0
 11
7.0
 21
-101.0
 31
0.0
  0
ARC
  5
210
100
AcDbEntity
  8
0
390
0
  6
CONTINUOUS
 62
     3
100
AcDbCircle
 10
6.8
 20
-102.3
 30
0.0
 40
1.3
100
AcDbArc
 50
90.0
 51
180.0
  0
ARC
  5
211
100
AcDbEntity
  8
0
390
0
  6
CONTINUOUS
 62
     3
100
AcDbCircle
 10
-6.8
 20
-102.3
 30
0.0
 40
1.3
100
AcDbArc
 50
0.0
 51
90.0
  0
LINE
  5
212
100
AcDbEntity
  8
0
390
0
  6
CONTINUOUS
 62
     3
100
AcDbLine
 10
-5.5
 20
-123.25
 30
0.0
 11
4.5
 21
-123.25
 31
0.0
  0
LINE
  5
213
100
AcDbEntity
  8
0
390
0
  6
CONTINUOUS
 62
     3
100
AcDbLine
 10
-5.5
 20
-123.25
 30
0.0
 11
-4.75
 21
-124.0
 31
0.0
  0
LINE
  5
214
100
AcDbEntity
  8
0
390
0
  6
CONTINUOUS
 62
     3
100
AcDbLine
 10
5.5
 20
-104.0
 30
0.0
 11
4.5
 21
-104.0
 31
0.0
  0
LINE
  5
215
100
AcDbEntity
  8
0
390
0
  6
CONTINUOUS
 62
     3
100
AcDbLine
 10
5.5
 20
-102.3
 30
0.0
 11
5.5
 21
-104.0
 31
0.0
  0
LINE
  5
216
100
AcDbEntity
  8
0
390
0
  6
CONTINUOUS
 62
     3
100
AcDbLine
 10
4.5
 20
-124.0
 30
0.0
 11
4.5
 21
-104.0
 31
0.0
  0
LINE
  5
217
100
AcDbEntity
  8
0
390
0
  6
CONTINUOUS
 62
     3
100
AcDbLine
 10
-5.5
 20
-123.25
 30
0.0
 11
-5.5
 21
-102.3
 31
0.0
  0
LINE
  5
218
100
AcDbEntity
  8
0
390
0
  6
CONTINUOUS
 62
     3
100
AcDbLine
 10
-7.0
 20
-101.0
 30
0.0
 11
7.0
 21
-101.0
 31
0.0
  0
LINE
  5
219
100
AcDbEntity
  8
0
390
0
  6
CONTINUOUS
 62
     3
100
AcDbLine
 10
-4.75
 20
-124.0
 30
0.0
 11
4.5
 21
-124.0
 31
0.0
  0
LINE
  5
21A
100
AcDbEntity
  8
0
390
0
  6
CONTINUOUS
 62
     3
100
AcDbLine
 10
52.084766
 20
-104.5
 30
0.0
 11
55.0
 21
-104.5
 31
0.0
  0
LINE
  5
21B
100
AcDbEntity
  8
0
390
0
  6
CONTINUOUS
 62
     3
100
AcDbLine
 10
-11.682597
 20
-101.0
 30
0.0
 11
-80.0
 21
-101.0
 31
0.0
  0
LINE
  5
21C
100
AcDbEntity
  8
0
390
0
  6
CONTINUOUS
 62
     3
100
AcDbLine
 10
51.958435
 20
-104.375937
 30
0.0
 11
52.084766
 21
-104.5
 31
0.0
  0
LINE
  5
21D
100
AcDbEntity
  8
0
390
0
  6
CONTINUOUS
 62
     3
100
AcDbLine
 10
51.765192
 20
-104.191113
 30
0.0
 11
51.958435
 21
-104.375937
 31
0.0
  0
LINE
  5
21E
100
AcDbEntity
  8
0
390
0
  6
CONTINUOUS
 62
     3
100
AcDbLine
 10
51.457152
 20
-103.905923
 30
0.0
 11
51.765192
 21
-104.191113
 31
0.0
  0
LINE
  5
21F
100
AcDbEntity
  8
0
390
0
  6
CONTINUOUS
 62
     3
100
AcDbLine
 10
51.045794
 20
-103.539063
 30
0.0
 11
51.457152
 21
-103.905923
 31
0.0
  0
LINE
  5
220
100
AcDbEntity
  8
0
390
0
  6
CONTINUOUS
 62
     3
100
AcDbLine
 10
50.542597
 20
-103.109228
 30
0.0
 11
51.045794
 21
-103.539063
 31
0.0
  0
LINE
  5
221
100
AcDbEntity
  8
0
390
0
  6
CONTINUOUS
 62
     3
100
AcDbLine
 10
49.959041
 20
-102.635114
 30
0.0
 11
50.542597
 21
-103.109228
 31
0.0
  0
LINE
  5
222
100
AcDbEntity
  8
0
390
0
  6
CONTINUOUS
 62
     3
100
AcDbLine
 10
49.306607
 20
-102.135416
 30
0.0
 11
49.959041
 21
-102.635114
 31
0.0
  0
LINE
  5
223
100
AcDbEntity
  8
0
390
0
  6
CONTINUOUS
 62
     3
100
AcDbLine
 10
48.596773
 20
-101.62883
 30
0.0
 11
49.306607
 21
-102.135416
 31
0.0
  0
LINE
  5
224
100
AcDbEntity
  8
0
390
0
  6
CONTINUOUS
 62
     3
100
AcDbLine
 10
47.841019
 20
-101.134051
 30
0.0
 11
48.596773
 21
-101.62883
 31
0.0
  0
LINE
  5
225
100
AcDbEntity
  8
0
390
0
  6
CONTINUOUS
 62
     3
100
AcDbLine
 10
47.050825
 20
-100.669775
 30
0.0
 11
47.841019
 21
-101.134051
 31
0.0
  0
LINE
  5
226
100
AcDbEntity
  8
0
390
0
  6
CONTINUOUS
 62
     3
100
AcDbLine
 10
46.235593
 20
-100.25098
 30
0.0
 11
47.050825
 21
-100.669775
 31
0.0
  0
LINE
  5
227
100
AcDbEntity
  8
0
390
0
  6
CONTINUOUS
 62
     3
100
AcDbLine
 10
45.396417
 20
-99.877777
 30
0.0
 11
46.235593
 21
-100.25098
 31
0.0
  0
LINE
  5
228
100
AcDbEntity
  8
0
390
0
  6
CONTINUOUS
 62
     3
100
AcDbLine
 10
44.532313
 20
-99.546555
 30
0.0
 11
45.396417
 21
-99.877777
 31
0.0
  0
LINE
  5
229
100
AcDbEntity
  8
0
390
0
  6
CONTINUOUS
 62
     3
100
AcDbLine
 10
43.642297
 20
-99.253709
 30
0.0
 11
44.532313
 21
-99.546555
 31
0.0
  0
LINE
  5
22A
100
AcDbEntity
  8
0
390
0
  6
CONTINUOUS
 62
     3
100
AcDbLine
 10
42.725384
 20
-98.99563
 30
0.0
 11
43.642297
 21
-99.253709
 31
0.0
  0
LINE
  5
22B
100
AcDbEntity
  8
0
390
0
  6
CONTINUOUS
 62
     3
100
AcDbLine
 10
41.780592
 20
-98.76871
 30
0.0
 11
42.725384
 21
-98.99563
 31
0.0
  0
LINE
  5
22C
100
AcDbEntity
  8
0
390
0
  6
CONTINUOUS
 62
     3
100
AcDbLine
 10
40.806937
 20
-98.569342
 30
0.0
 11
41.780592
 21
-98.76871
 31
0.0
  0
LINE
  5
22D
100
AcDbEntity
  8
0
390
0
  6
CONTINUOUS
 62
     3
100
AcDbLine
 10
39.803434
 20
-98.393917
 30
0.0
 11
40.806937
 21
-98.569342
 31
0.0
  0
LINE
  5
22E
100
AcDbEntity
  8
0
390
0
  6
CONTINUOUS
 62
     3
100
AcDbLine
 10
38.769099
 20
-98.238828
 30
0.0
 11
39.803434
 21
-98.393917
 31
0.0
  0
LINE
  5
22F
100
AcDbEntity
  8
0
390
0
  6
CONTINUOUS
 62
     3
100
AcDbLine
 10
37.70295
 20
-98.100467
 30
0.0
 11
38.769099
 21
-98.238828
 31
0.0
  0
LINE
  5
230
100
AcDbEntity
  8
0
390
0
  6
CONTINUOUS
 62
     3
100
AcDbLine
 10
25.731133
 20
-97.444467
 30
0.0
 11
37.70295
 21
-98.100467
 31
0.0
  0
LINE
  5
231
100
AcDbEntity
  8
0
390
0
  6
CONTINUOUS
 62
     3
100
AcDbLine
 10
24.466713
 20
-97.450808
 30
0.0
 11
25.731133
 21
-97.444467
 31
0.0
  0
LINE
  5
232
100
AcDbEntity
  8
0
390
0
  6
CONTINUOUS
 62
     3
100
AcDbLine
 10
23.199013
 20
-97.468957
 30
0.0
 11
24.466713
 21
-97.450808
 31
0.0
  0
LINE
  5
233
100
AcDbEntity
  8
0
390
0
  6
CONTINUOUS
 62
     3
100
AcDbLine
 10
21.928033
 20
-97.497603
 30
0.0
 11
23.199013
 21
-97.468957
 31
0.0
  0
LINE
  5
234
100
AcDbEntity
  8
0
390
0
  6
CONTINUOUS
 62
     3
100
AcDbLine
 10
20.653772
 20
-97.535432
 30
0.0
 11
21.928033
 21
-97.497603
 31
0.0
  0
LINE
  5
235
100
AcDbEntity
  8
0
390
0
  6
CONTINUOUS
 62
     3
100
AcDbLine
 10
19.376231
 20
-97.581133
 30
0.0
 11
20.653772
 21
-97.535432
 31
0.0
  0
LINE
  5
236
100
AcDbEntity
  8
0
390
0
  6
CONTINUOUS
 62
     3
100
AcDbLine
 10
18.09541
 20
-97.633395
 30
0.0
 11
19.376231
 21
-97.581133
 31
0.0
  0
LINE
  5
237
100
AcDbEntity
  8
0
390
0
  6
CONTINUOUS
 62
     3
100
AcDbLine
 10
16.811308
 20
-97.690904
 30
0.0
 11
18.09541
 21
-97.633395
 31
0.0
  0
LINE
  5
238
100
AcDbEntity
  8
0
390
0
  6
CONTINUOUS
 62
     3
100
AcDbLine
 10
15.523925
 20
-97.752349
 30
0.0
 11
16.811308
 21
-97.690904
 31
0.0
  0
LINE
  5
239
100
AcDbEntity
  8
0
390
0
  6
CONTINUOUS
 62
     3
100
AcDbLine
 10
14.233261
 20
-97.816419
 30
0.0
 11
15.523925
 21
-97.752349
 31
0.0
  0
LINE
  5
23A
100
AcDbEntity
  8
0
390
0
  6
CONTINUOUS
 62
     3
100
AcDbLine
 10
12.939317
 20
-97.8818
 30
0.0
 11
14.233261
 21
-97.816419
 31
0.0
  0
LINE
  5
23B
100
AcDbEntity
  8
0
390
0
  6
CONTINUOUS
 62
     3
100
AcDbLine
 10
11.642911
 20
-97.947564
 30
0.0
 11
12.939317
 21
-97.8818
 31
0.0
  0
LINE
  5
23C
100
AcDbEntity
  8
0
390
0
  6
CONTINUOUS
 62
     3
100
AcDbLine
 10
10.348145
 20
-98.014312
 30
0.0
 11
11.642911
 21
-97.947564
 31
0.0
  0
LINE
  5
23D
100
AcDbEntity
  8
0
390
0
  6
CONTINUOUS
 62
     3
100
AcDbLine
 10
9.059938
 20
-98.083028
 30
0.0
 11
10.348145
 21
-98.014312
 31
0.0
  0
LINE
  5
23E
100
AcDbEntity
  8
0
390
0
  6
CONTINUOUS
 62
     3
100
AcDbLine
 10
7.783211
 20
-98.154696
 30
0.0
 11
9.059938
 21
-98.083028
 31
0.0
  0
LINE
  5
23F
100
AcDbEntity
  8
0
390
0
  6
CONTINUOUS
 62
     3
100
AcDbLine
 10
6.522883
 20
-98.2303
 30
0.0
 11
7.783211
 21
-98.154696
 31
0.0
  0
LINE
  5
240
100
AcDbEntity
  8
0
390
0
  6
CONTINUOUS
 62
     3
100
AcDbLine
 10
5.283876
 20
-98.310824
 30
0.0
 11
6.522883
 21
-98.2303
 31
0.0
  0
LINE
  5
241
100
AcDbEntity
  8
0
390
0
  6
CONTINUOUS
 62
     3
100
AcDbLine
 10
4.071109
 20
-98.397252
 30
0.0
 11
5.283876
 21
-98.310824
 31
0.0
  0
LINE
  5
242
100
AcDbEntity
  8
0
390
0
  6
CONTINUOUS
 62
     3
100
AcDbLine
 10
2.889502
 20
-98.490568
 30
0.0
 11
4.071109
 21
-98.397252
 31
0.0
  0
LINE
  5
243
100
AcDbEntity
  8
0
390
0
  6
CONTINUOUS
 62
     3
100
AcDbLine
 10
1.743975
 20
-98.591756
 30
0.0
 11
2.889502
 21
-98.490568
 31
0.0
  0
LINE
  5
244
100
AcDbEntity
  8
0
390
0
  6
CONTINUOUS
 62
     3
100
AcDbLine
 10
0.63945
 20
-98.7018
 30
0.0
 11
1.743975
 21
-98.591756
 31
0.0
  0
LINE
  5
245
100
AcDbEntity
  8
0
390
0
  6
CONTINUOUS
 62
     3
100
AcDbLine
 10
-0.421533
 20
-98.821657
 30
0.0
 11
0.63945
 21
-98.7018
 31
0.0
  0
LINE
  5
246
100
AcDbEntity
  8
0
390
0
  6
CONTINUOUS
 62
     3
100
AcDbLine
 10
-1.445942
 20
-98.952173
 30
0.0
 11
-0.421533
 21
-98.821657
 31
0.0
  0
LINE
  5
247
100
AcDbEntity
  8
0
390
0
  6
CONTINUOUS
 62
     3
100
AcDbLine
 10
-2.443127
 20
-99.094169
 30
0.0
 11
-1.445942
 21
-98.952173
 31
0.0
  0
LINE
  5
248
100
AcDbEntity
  8
0
390
0
  6
CONTINUOUS
 62
     3
100
AcDbLine
 10
-3.422436
 20
-99.248465
 30
0.0
 11
-2.443127
 21
-99.094169
 31
0.0
  0
LINE
  5
249
100
AcDbEntity
  8
0
390
0
  6
CONTINUOUS
 62
     3
100
AcDbLine
 10
-4.393216
 20
-99.41588
 30
0.0
 11
-3.422436
 21
-99.248465
 31
0.0
  0
LINE
  5
24A
100
AcDbEntity
  8
0
390
0
  6
CONTINUOUS
 62
     3
100
AcDbLine
 10
-5.364815
 20
-99.597235
 30
0.0
 11
-4.393216
 21
-99.41588
 31
0.0
  0
LINE
  5
24B
100
AcDbEntity
  8
0
390
0
  6
CONTINUOUS
 62
     3
100
AcDbLine
 10
-6.346583
 20
-99.793348
 30
0.0
 11
-5.364815
 21
-99.597235
 31
0.0
  0
LINE
  5
24C
100
AcDbEntity
  8
0
390
0
  6
CONTINUOUS
 62
     3
100
AcDbLine
 10
-7.347867
 20
-100.005041
 30
0.0
 11
-6.346583
 21
-99.793348
 31
0.0
  0
LINE
  5
24D
100
AcDbEntity
  8
0
390
0
  6
CONTINUOUS
 62
     3
100
AcDbLine
 10
-8.378015
 20
-100.233132
 30
0.0
 11
-7.347867
 21
-100.005041
 31
0.0
  0
LINE
  5
24E
100
AcDbEntity
  8
0
390
0
  6
CONTINUOUS
 62
     3
100
AcDbLine
 10
-9.446375
 20
-100.478442
 30
0.0
 11
-8.378015
 21
-100.233132
 31
0.0
  0
LINE
  5
24F
100
AcDbEntity
  8
0
390
0
  6
CONTINUOUS
 62
     3
100
AcDbLine
 10
-10.560109
 20
-100.742173
 30
0.0
 11
-9.446375
 21
-100.478442
 31
0.0
  0
LINE
  5
250
100
AcDbEntity
  8
0
390
0
  6
CONTINUOUS
 62
     3
100
AcDbLine
 10
-11.717632
 20
-101.027059
 30
0.0
 11
-10.560109
 21
-100.742173
 31
0.0
  0
LINE
  5
251
100
AcDbEntity
  8
0
390
0
  6
CONTINUOUS
 62
     3
100
AcDbLine
 10
-12.915172
 20
-101.336216
 30
0.0
 11
-11.717632
 21
-101.027059
 31
0.0
  0
LINE
  5
252
100
AcDbEntity
  8
0
390
0
  6
CONTINUOUS
 62
     3
100
AcDbLine
 10
-14.148957
 20
-101.672762
 30
0.0
 11
-12.915172
 21
-101.336216
 31
0.0
  0
LINE
  5
253
100
AcDbEntity
  8
0
390
0
  6
CONTINUOUS
 62
     3
100
AcDbLine
 10
-15.415216
 20
-102.039811
 30
0.0
 11
-14.148957
 21
-101.672762
 31
0.0
  0
LINE
  5
254
100
AcDbEntity
  8
0
390
0
  6
CONTINUOUS
 62
     3
100
AcDbLine
 10
-16.710176
 20
-102.440482
 30
0.0
 11
-15.415216
 21
-102.039811
 31
0.0
  0
LINE
  5
255
100
AcDbEntity
  8
0
390
0
  6
CONTINUOUS
 62
     3
100
AcDbLine
 10
-18.030066
 20
-102.877889
 30
0.0
 11
-16.710176
 21
-102.440482
 31
0.0
  0
LINE
  5
256
100
AcDbEntity
  8
0
390
0
  6
CONTINUOUS
 62
     3
100
AcDbLine
 10
-19.371115
 20
-103.355151
 30
0.0
 11
-18.030066
 21
-102.877889
 31
0.0
  0
LINE
  5
257
100
AcDbEntity
  8
0
390
0
  6
CONTINUOUS
 62
     3
100
AcDbLine
 10
-20.72955
 20
-103.875382
 30
0.0
 11
-19.371115
 21
-103.355151
 31
0.0
  0
LINE
  5
258
100
AcDbEntity
  8
0
390
0
  6
CONTINUOUS
 62
     3
100
AcDbLine
 10
-22.242847
 20
-104.5
 30
0.0
 11
-20.72955
 21
-103.875382
 31
0.0
  0
LINE
  5
259
100
AcDbEntity
  8
0
390
0
  6
CONTINUOUS
 62
     3
100
AcDbLine
 10
-55.0
 20
-104.5
 30
0.0
 11
-22.242847
 21
-104.5
 31
0.0
  0
LINE
  5
25A
100
AcDbEntity
  8
0
390
0
  6
CONTINUOUS
 62
     3
100
AcDbLine
 10
55.0
 20
-101.0
 30
0.0
 11
55.0
 21
-104.5
 31
0.0
  0
LINE
  5
25B
100
AcDbEntity
  8
0
390
0
  6
CONTINUOUS
 62
     3
100
AcDbLine
 10
-55.0
 20
-101.0
 30
0.0
 11
-55.0
 21
-104.5
 31
0.0
  0
ARC
  5
25C
100
AcDbEntity
  8
0
390
0
  6
CONTINUOUS
 62
     3
100
AcDbCircle
 10
-45.0
 20
-69.0
 30
0.0
 40
2.0
100
AcDbArc
 50
0.0
 51
90.0
  0
ARC
  5
25D
100
AcDbEntity
  8
0
390
0
  6
CONTINUOUS
 62
     3
100
AcDbCircle
 10
45.0
 20
-69.0
 30
0.0
 40
2.0
100
AcDbArc
 50
90.0
 51
180.0
  0
ARC
  5
25E
100
AcDbEntity
  8
0
390
0
  6
CONTINUOUS
 62
     3
100
AcDbCircle
 10
-48.0
 20
-87.0
 30
0.0
 40
5.0
100
AcDbArc
 50
270.0
 51
0.0
  0
ARC
  5
25F
100
AcDbEntity
  8
0
390
0
  6
CONTINUOUS
 62
     3
100
AcDbCircle
 10
48.0
 20
-87.0
 30
0.0
 40
5.0
100
AcDbArc
 50
180.0
 51
270.0
  0
LINE
  5
260
100
AcDbEntity
  8
0
390
0
  6
CONTINUOUS
 62
     3
100
AcDbLine
 10
43.0
 20
-69.0
 30
0.0
 11
43.0
 21
-87.0
 31
0.0
  0
LINE
  5
261
100
AcDbEntity
  8
0
390
0
  6
CONTINUOUS
 62
     3
100
AcDbLine
 10
-43.0
 20
-87.0
 30
0.0
 11
-43.0
 21
-69.0
 31
0.0
  0
LINE
  5
262
100
AcDbEntity
  8
0
390
0
  6
CONTINUOUS
 62
     7
100
AcDbLine
 10
52.75
 20
-70.425
 30
0.0
 11
52.75
 21
-73.0
 31
0.0
  0
LINE
  5
263
100
AcDbEntity
  8
0
390
0
  6
CONTINUOUS
 62
     7
100
AcDbLine
 10
53.5
 20
-70.425
 30
0.0
 11
53.5
 21
-73.0
 31
0.0
  0
LINE
  5
264
100
AcDbEntity
  8
0
390
0
  6
CONTINUOUS
 62
     7
100
AcDbLine
 10
49.25
 20
-70.425
 30
0.0
 11
49.25
 21
-73.0
 31
0.0
  0
LINE
  5
265
100
AcDbEntity
  8
0
390
0
  6
CONTINUOUS
 62
     7
100
AcDbLine
 10
48.5
 20
-70.425
 30
0.0
 11
48.5
 21
-73.0
 31
0.0
  0
LINE
  5
266
100
AcDbEntity
  8
0
390
0
  6
CONTINUOUS
 62
     7
100
AcDbLine
 10
48.5
 20
-73.0
 30
0.0
 11
53.5
 21
-73.0
 31
0.0
  0
LINE
  5
267
100
AcDbEntity
  8
0
390
0
  6
CONTINUOUS
 62
     7
100
AcDbLine
 10
48.5737
 20
-70.025
 30
0.0
 11
48.9737
 21
-70.425
 31
0.0
  0
LINE
  5
268
100
AcDbEntity
  8
0
390
0
  6
CONTINUOUS
 62
     7
100
AcDbLine
 10
48.5737
 20
-70.025
 30
0.0
 11
48.1737
 21
-70.425
 31
0.0
  0
LINE
  5
269
100
AcDbEntity
  8
0
390
0
  6
CONTINUOUS
 62
     7
100
AcDbLine
 10
48.5737
 20
-70.025
 30
0.0
 11
48.5737
 21
-67.0
 31
0.0
  0
LINE
  5
26A
100
AcDbEntity
  8
0
390
0
  6
CONTINUOUS
 62
     7
100
AcDbLine
 10
53.4263
 20
-70.025
 30
0.0
 11
53.0263
 21
-70.425
 31
0.0
  0
LINE
  5
26B
100
AcDbEntity
  8
0
390
0
  6
CONTINUOUS
 62
     7
100
AcDbLine
 10
53.4263
 20
-70.025
 30
0.0
 11
53.8263
 21
-70.425
 31
0.0
  0
LINE
  5
26C
100
AcDbEntity
  8
0
390
0
  6
CONTINUOUS
 62
     7
100
AcDbLine
 10
53.4263
 20
-70.025
 30
0.0
 11
53.4263
 21
-67.0
 31
0.0
  0
LINE
  5
26D
100
AcDbEntity
  8
0
390
0
  6
CONTINUOUS
 62
     7
100
AcDbLine
 10
54.9975
 20
-70.425
 30
0.0
 11
55.3975
 21
-70.025
 31
0.0
  0
LINE
  5
26E
100
AcDbEntity
  8
0
390
0
  6
CONTINUOUS
 62
     7
100
AcDbLine
 10
46.6025
 20
-70.025
 30
0.0
 11
46.6025
 21
-67.0
 31
0.0
  0
LINE
  5
26F
100
AcDbEntity
  8
0
390
0
  6
CONTINUOUS
 62
     7
100
AcDbLine
 10
55.3975
 20
-70.025
 30
0.0
 11
55.3975
 21
-67.0
 31
0.0
  0
LINE
  5
270
100
AcDbEntity
  8
0
390
0
  6
CENTER
 62
     7
100
AcDbLine
 10
51.0
 20
-65.2618
 30
0.0
 11
51.0
 21
-73.7511
 31
0.0
  0
LINE
  5
271
100
AcDbEntity
  8
0
390
0
  6
CONTINUOUS
 62
     7
100
AcDbLine
 10
54.9975
 20
-70.425
 30
0.0
 11
47.0025
 21
-70.425
 31
0.0
  0
LINE
  5
272
100
AcDbEntity
  8
0
390
0
  6
CONTINUOUS
 62
     7
100
AcDbLine
 10
55.3975
 20
-67.0
 30
0.0
 11
46.6025
 21
-67.0
 31
0.0
  0
LINE
  5
273
100
AcDbEntity
  8
0
390
0
  6
CONTINUOUS
 62
     7
100
AcDbLine
 10
46.6025
 20
-70.025
 30
0.0
 11
47.0025
 21
-70.425
 31
0.0
  0
LINE
  5
274
100
AcDbEntity
  8
0
390
0
  6
CONTINUOUS
 62
     7
100
AcDbLine
 10
-23.75
 20
-70.425
 30
0.0
 11
-23.75
 21
-73.0
 31
0.0
  0
LINE
  5
275
100
AcDbEntity
  8
0
390
0
  6
CONTINUOUS
 62
     7
100
AcDbLine
 10
-23.0
 20
-70.425
 30
0.0
 11
-23.0
 21
-73.0
 31
0.0
  0
LINE
  5
276
100
AcDbEntity
  8
0
390
0
  6
CONTINUOUS
 62
     7
100
AcDbLine
 10
-27.25
 20
-70.425
 30
0.0
 11
-27.25
 21
-73.0
 31
0.0
  0
LINE
  5
277
100
AcDbEntity
  8
0
390
0
  6
CONTINUOUS
 62
     7
100
AcDbLine
 10
-28.0
 20
-70.425
 30
0.0
 11
-28.0
 21
-73.0
 31
0.0
  0
LINE
  5
278
100
AcDbEntity
  8
0
390
0
  6
CONTINUOUS
 62
     7
100
AcDbLine
 10
-28.0
 20
-73.0
 30
0.0
 11
-23.0
 21
-73.0
 31
0.0
  0
LINE
  5
279
100
AcDbEntity
  8
0
390
0
  6
CONTINUOUS
 62
     7
100
AcDbLine
 10
-27.9263
 20
-70.025
 30
0.0
 11
-27.5263
 21
-70.425
 31
0.0
  0
LINE
  5
27A
100
AcDbEntity
  8
0
390
0
  6
CONTINUOUS
 62
     7
100
AcDbLine
 10
-27.9263
 20
-70.025
 30
0.0
 11
-28.3263
 21
-70.425
 31
0.0
  0
LINE
  5
27B
100
AcDbEntity
  8
0
390
0
  6
CONTINUOUS
 62
     7
100
AcDbLine
 10
-27.9263
 20
-70.025
 30
0.0
 11
-27.9263
 21
-67.0
 31
0.0
  0
LINE
  5
27C
100
AcDbEntity
  8
0
390
0
  6
CONTINUOUS
 62
     7
100
AcDbLine
 10
-23.0737
 20
-70.025
 30
0.0
 11
-23.4737
 21
-70.425
 31
0.0
  0
LINE
  5
27D
100
AcDbEntity
  8
0
390
0
  6
CONTINUOUS
 62
     7
100
AcDbLine
 10
-23.0737
 20
-70.025
 30
0.0
 11
-22.6737
 21
-70.425
 31
0.0
  0
LINE
  5
27E
100
AcDbEntity
  8
0
390
0
  6
CONTINUOUS
 62
     7
100
AcDbLine
 10
-23.0737
 20
-70.025
 30
0.0
 11
-23.0737
 21
-67.0
 31
0.0
  0
LINE
  5
27F
100
AcDbEntity
  8
0
390
0
  6
CONTINUOUS
 62
     7
100
AcDbLine
 10
-21.5025
 20
-70.425
 30
0.0
 11
-21.1025
 21
-70.025
 31
0.0
  0
LINE
  5
280
100
AcDbEntity
  8
0
390
0
  6
CONTINUOUS
 62
     7
100
AcDbLine
 10
-29.8975
 20
-70.025
 30
0.0
 11
-29.8975
 21
-67.0
 31
0.0
  0
LINE
  5
281
100
AcDbEntity
  8
0
390
0
  6
CONTINUOUS
 62
     7
100
AcDbLine
 10
-21.1025
 20
-70.025
 30
0.0
 11
-21.1025
 21
-67.0
 31
0.0
  0
LINE
  5
282
100
AcDbEntity
  8
0
390
0
  6
CENTER
 62
     7
100
AcDbLine
 10
-25.5
 20
-65.2618
 30
0.0
 11
-25.5
 21
-73.7511
 31
0.0
  0
LINE
  5
283
100
AcDbEntity
  8
0
390
0
  6
CONTINUOUS
 62
     7
100
AcDbLine
 10
-21.5025
 20
-70.425
 30
0.0
 11
-29.4975
 21
-70.425
 31
0.0
  0
LINE
  5
284
100
AcDbEntity
  8
0
390
0
  6
CONTINUOUS
 62
     7
100
AcDbLine
 10
-21.1025
 20
-67.0
 30
0.0
 11
-29.8975
 21
-67.0
 31
0.0
  0
LINE
  5
285
100
AcDbEntity
  8
0
390
0
  6
CONTINUOUS
 62
     7
100
AcDbLine
 10
-29.8975
 20
-70.025
 30
0.0
 11
-29.4975
 21
-70.425
 31
0.0
  0
ARC
  5
286
100
AcDbEntity
  8
0
390
0
  6
CONTINUOUS
 62
     3
100
AcDbCircle
 10
56.0
 20
-66.0
 30
0.0
 40
1.0
100
AcDbArc
 50
270.0
 51
0.0
  0
ARC
  5
287
100
AcDbEntity
  8
0
390
0
  6
CONTINUOUS
 62
     3
100
AcDbCircle
 10
-56.0
 20
-66.0
 30
0.0
 40
1.0
100
AcDbArc
 50
180.0
 51
270.0
  0
LINE
  5
288
100
AcDbEntity
  8
0
390
0
  6
CONTINUOUS
 62
     3
100
AcDbLine
 10
57.0
 20
-66.0
 30
0.0
 11
57.0
 21
-61.0
 31
0.0
  0
LINE
  5
289
100
AcDbEntity
  8
0
390
0
  6
CONTINUOUS
 62
     3
100
AcDbLine
 10
-57.0
 20
-61.0
 30
0.0
 11
-57.0
 21
-66.0
 31
0.0
  0
LINE
  5
28A
100
AcDbEntity
  8
0
390
0
  6
CONTINUOUS
 62
     3
100
AcDbLine
 10
-56.0
 20
-67.0
 30
0.0
 11
56.0
 21
-67.0
 31
0.0
  0
LINE
  5
28B
100
AcDbEntity
  8
0
390
0
  6
CONTINUOUS
 62
     3
100
AcDbLine
 10
-57.0
 20
-61.0
 30
0.0
 11
57.0
 21
-61.0
 31
0.0
  0
ARC
  5
28C
100
AcDbEntity
  8
0
390
0
  6
CONTINUOUS
 62
     3
100
AcDbCircle
 10
-79.0
 20
-93.0
 30
0.0
 40
1.0
100
AcDbArc
 50
90.0
 51
180.0
  0
ARC
  5
28D
100
AcDbEntity
  8
0
390
0
  6
CONTINUOUS
 62
     3
100
AcDbCircle
 10
79.0
 20
-93.0
 30
0.0
 40
1.0
100
AcDbArc
 50
0.0
 51
90.0
  0
LINE
  5
28E
100
AcDbEntity
  8
0
390
0
  6
CONTINUOUS
 62
     3
100
AcDbLine
 10
80.0
 20
-101.0
 30
0.0
 11
80.0
 21
-93.0
 31
0.0
  0
LINE
  5
28F
100
AcDbEntity
  8
0
390
0
  6
CONTINUOUS
 62
     3
100
AcDbLine
 10
-80.0
 20
-93.0
 30
0.0
 11
-80.0
 21
-101.0
 31
0.0
  0
LINE
  5
290
100
AcDbEntity
  8
0
390
0
  6
CONTINUOUS
 62
     3
100
AcDbLine
 10
-79.0
 20
-92.0
 30
0.0
 11
79.0
 21
-92.0
 31
0.0
  0
LINE
  5
291
100
AcDbEntity
  8
0
390
0
  6
CONTINUOUS
 62
     7
100
AcDbLine
 10
-31.4485
 20
60.8109
 30
0.0
 11
-30.0189
 21
64.3109
 31
0.0
  0
LINE
  5
292
100
AcDbEntity
  8
0
390
0
  6
CONTINUOUS
 62
     7
100
AcDbLine
 10
-30.0189
 20
64.6891
 30
0.0
 11
-31.4485
 21
68.1891
 31
0.0
  0
ARC
  5
293
100
AcDbEntity
  8
0
390
0
  6
CONTINUOUS
 62
     7
100
AcDbCircle
 10
-34.031283
 20
64.5
 30
0.0
 40
4.681217
100
AcDbArc
 50
140.906141
 51
219.093859
  0
ARC
  5
294
100
AcDbEntity
  8
0
390
0
  6
CONTINUOUS
 62
     7
100
AcDbCircle
 10
-35.4625
 20
65.662864
 30
0.0
 40
2.837136
100
AcDbArc
 50
39.093859
 51
140.906141
  0
ARC
  5
295
100
AcDbEntity
  8
0
390
0
  6
CONTINUOUS
 62
     7
100
AcDbCircle
 10
-36.893717
 20
64.5
 30
0.0
 40
4.681217
100
AcDbArc
 50
320.906141
 51
39.093859
  0
ARC
  5
296
100
AcDbEntity
  8
0
390
0
  6
CONTINUOUS
 62
     7
100
AcDbCircle
 10
-35.4625
 20
63.337136
 30
0.0
 40
2.837136
100
AcDbArc
 50
219.093859
 51
320.906141
  0
LINE
  5
297
100
AcDbEntity
  8
0
390
0
  6
CENTER
 62
     7
100
AcDbLine
 10
-35.4625
 20
69.922
 30
0.0
 11
-35.4625
 21
59.4364
 31
0.0
  0
LINE
  5
298
100
AcDbEntity
  8
0
390
0
  6
CONTINUOUS
 62
     7
100
AcDbLine
 10
-33.2342
 20
60.8109
 30
0.0
 11
-31.8046
 21
64.3109
 31
0.0
  0
LINE
  5
299
100
AcDbEntity
  8
0
390
0
  6
CONTINUOUS
 62
     7
100
AcDbLine
 10
-38.9371
 20
64.3313
 30
0.0
 11
-37.6825
 21
60.8313
 31
0.0
  0
LINE
  5
29A
100
AcDbEntity
  8
0
390
0
  6
CONTINUOUS
 62
     7
100
AcDbLine
 10
-37.6825
 20
68.1687
 30
0.0
 11
-38.9371
 21
64.6687
 31
0.0
  0
LINE
  5
29B
100
AcDbEntity
  8
0
390
0
  6
CONTINUOUS
 62
     7
100
AcDbLine
 10
-31.8046
 20
64.6891
 30
0.0
 11
-33.2342
 21
68.1891
 31
0.0
  0
LINE
  5
29C
100
AcDbEntity
  8
0
390
0
  6
CONTINUOUS
 62
     7
100
AcDbLine
 10
-37.2118
 20
60.5
 30
0.0
 11
-31.9114
 21
60.5
 31
0.0
  0
LINE
  5
29D
100
AcDbEntity
  8
0
390
0
  6
CONTINUOUS
 62
     7
100
AcDbLine
 10
-37.2118
 20
68.5
 30
0.0
 11
-31.9114
 21
68.5
 31
0.0
  0
ARC
  5
29E
100
AcDbEntity
  8
0
390
0
  6
CONTINUOUS
 62
     7
100
AcDbCircle
 10
-37.2118
 20
68.0
 30
0.0
 40
0.5
100
AcDbArc
 50
90.0
 51
160.281
  0
ARC
  5
29F
100
AcDbEntity
  8
0
390
0
  6
CONTINUOUS
 62
     7
100
AcDbCircle
 10
-33.6971
 20
68.0
 30
0.0
 40
0.5
100
AcDbArc
 50
22.2209
 51
90.0
  0
ARC
  5
2A0
100
AcDbEntity
  8
0
390
0
  6
CONTINUOUS
 62
     7
100
AcDbCircle
 10
-31.9114
 20
68.0
 30
0.0
 40
0.5
100
AcDbArc
 50
22.2209
 51
90.0
  0
ARC
  5
2A1
100
AcDbEntity
  8
0
390
0
  6
CONTINUOUS
 62
     7
100
AcDbCircle
 10
-30.4817
 20
64.5
 30
0.0
 40
0.5
100
AcDbArc
 50
337.7804
 51
22.2196
  0
ARC
  5
2A2
100
AcDbEntity
  8
0
390
0
  6
CONTINUOUS
 62
     7
100
AcDbCircle
 10
-31.9114
 20
61.0
 30
0.0
 40
0.5
100
AcDbArc
 50
270.0
 51
337.7791
  0
ARC
  5
2A3
100
AcDbEntity
  8
0
390
0
  6
CONTINUOUS
 62
     7
100
AcDbCircle
 10
-33.6971
 20
61.0
 30
0.0
 40
0.5
100
AcDbArc
 50
270.0
 51
337.7791
  0
ARC
  5
2A4
100
AcDbEntity
  8
0
390
0
  6
CONTINUOUS
 62
     7
100
AcDbCircle
 10
-37.2118
 20
61.0
 30
0.0
 40
0.5
100
AcDbArc
 50
199.719
 51
270.0
  0
ARC
  5
2A5
100
AcDbEntity
  8
0
390
0
  6
CONTINUOUS
 62
     7
100
AcDbCircle
 10
-38.4665
 20
64.5
 30
0.0
 40
0.5
100
AcDbArc
 50
160.281
 51
199.719
  0
LINE
  5
2A6
100
AcDbEntity
  8
0
390
0
  6
CENTER
 62
     7
100
AcDbLine
 10
-40.144
 20
64.5
 30
0.0
 11
-28.8556
 21
64.5
 31
0.0
  0
ARC
  5
2A7
100
AcDbEntity
  8
0
390
0
  6
CONTINUOUS
 62
     7
100
AcDbCircle
 10
-32.2674
 20
64.5
 30
0.0
 40
0.5
100
AcDbArc
 50
337.7804
 51
22.2196
  0
LINE
  5
2A8
100
AcDbEntity
  8
0
390
0
  6
CONTINUOUS
 62
     7
100
AcDbLine
 10
70.525
 20
62.0737
 30
0.0
 11
70.925
 21
62.4737
 31
0.0
  0
LINE
  5
2A9
100
AcDbEntity
  8
0
390
0
  6
CONTINUOUS
 62
     7
100
AcDbLine
 10
70.525
 20
62.0737
 30
0.0
 11
70.925
 21
61.6737
 31
0.0
  0
LINE
  5
2AA
100
AcDbEntity
  8
0
390
0
  6
CONTINUOUS
 62
     7
100
AcDbLine
 10
70.525
 20
62.0737
 30
0.0
 11
67.5
 21
62.0737
 31
0.0
  0
LINE
  5
2AB
100
AcDbEntity
  8
0
390
0
  6
CONTINUOUS
 62
     7
100
AcDbLine
 10
70.525
 20
66.9263
 30
0.0
 11
70.925
 21
66.5263
 31
0.0
  0
LINE
  5
2AC
100
AcDbEntity
  8
0
390
0
  6
CONTINUOUS
 62
     7
100
AcDbLine
 10
70.525
 20
66.9263
 30
0.0
 11
70.925
 21
67.3263
 31
0.0
  0
LINE
  5
2AD
100
AcDbEntity
  8
0
390
0
  6
CONTINUOUS
 62
     7
100
AcDbLine
 10
70.525
 20
66.9263
 30
0.0
 11
67.5
 21
66.9263
 31
0.0
  0
LINE
  5
2AE
100
AcDbEntity
  8
0
390
0
  6
CONTINUOUS
 62
     7
100
AcDbLine
 10
70.925
 20
68.4975
 30
0.0
 11
70.525
 21
68.8975
 31
0.0
  0
LINE
  5
2AF
100
AcDbEntity
  8
0
390
0
  6
CONTINUOUS
 62
     7
100
AcDbLine
 10
70.525
 20
60.1025
 30
0.0
 11
67.5
 21
60.1025
 31
0.0
  0
LINE
  5
2B0
100
AcDbEntity
  8
0
390
0
  6
CONTINUOUS
 62
     7
100
AcDbLine
 10
70.525
 20
68.8975
 30
0.0
 11
67.5
 21
68.8975
 31
0.0
  0
LINE
  5
2B1
100
AcDbEntity
  8
0
390
0
  6
CENTER
 62
     7
100
AcDbLine
 10
65.7618
 20
64.5
 30
0.0
 11
72.2512
 21
64.5
 31
0.0
  0
LINE
  5
2B2
100
AcDbEntity
  8
0
390
0
  6
CONTINUOUS
 62
     7
100
AcDbLine
 10
70.925
 20
68.4975
 30
0.0
 11
70.925
 21
60.5025
 31
0.0
  0
LINE
  5
2B3
100
AcDbEntity
  8
0
390
0
  6
CONTINUOUS
 62
     7
100
AcDbLine
 10
67.5
 20
68.8975
 30
0.0
 11
67.5
 21
60.1025
 31
0.0
  0
LINE
  5
2B4
100
AcDbEntity
  8
0
390
0
  6
CONTINUOUS
 62
     7
100
AcDbLine
 10
70.525
 20
60.1025
 30
0.0
 11
70.925
 21
60.5025
 31
0.0
  0
LINE
  5
2B5
100
AcDbEntity
  8
0
390
0
  6
CONTINUOUS
 62
     3
100
AcDbLine
 10
80.0
 20
-101.0
 30
0.0
 11
47.636262
 21
-101.0
 31
0.0
  0
LINE
  5
2B6
100
AcDbEntity
  8
0
390
0
  6
CONTINUOUS
 62
     3
100
AcDbLine
 10
-60.0
 20
78.0
 30
0.0
 11
-58.0933
 21
106.5998
 31
0.0
  0
LINE
  5
2B7
100
AcDbEntity
  8
0
390
0
  6
CONTINUOUS
 62
     3
100
AcDbLine
 10
58.2412
 20
106.7942
 30
0.0
 11
64.0
 21
78.0
 31
0.0
  0
ARC
  5
2B8
100
AcDbEntity
  8
0
390
0
  6
CONTINUOUS
 62
     3
100
AcDbCircle
 10
-56.5967
 20
106.5
 30
0.0
 40
1.5
100
AcDbArc
 50
90.0
 51
176.1854
  0
ARC
  5
2B9
100
AcDbEntity
  8
0
390
0
  6
CONTINUOUS
 62
     3
100
AcDbCircle
 10
56.7703
 20
106.5
 30
0.0
 40
1.5
100
AcDbArc
 50
11.3104
 51
90.0
  0
ARC
  5
2BA
100
AcDbEntity
  8
0
390
0
  6
CONTINUOUS
 62
     3
100
AcDbCircle
 10
-59.5
 20
76.5
 30
0.0
 40
1.5
100
AcDbArc
 50
90.0
 51
180.0
  0
ARC
  5
2BB
100
AcDbEntity
  8
0
390
0
  6
CONTINUOUS
 62
     3
100
AcDbCircle
 10
66.0
 20
76.5
 30
0.0
 40
1.5
100
AcDbArc
 50
0.0
 51
90.0
  0
LINE
  5
2BC
100
AcDbEntity
  8
0
390
0
  6
CONTINUOUS
 62
     3
100
AcDbLine
 10
-61.0
 20
56.0
 30
0.0
 11
-61.0
 21
76.5
 31
0.0
  0
LINE
  5
2BD
100
AcDbEntity
  8
0
390
0
  6
CONTINUOUS
 62
     3
100
AcDbLine
 10
67.5
 20
76.5
 30
0.0
 11
67.5
 21
56.0
 31
0.0
  0
LINE
  5
2BE
100
AcDbEntity
  8
0
390
0
  6
CONTINUOUS
 62
     3
100
AcDbLine
 10
-61.0
 20
56.0
 30
0.0
 11
67.5
 21
56.0
 31
0.0
  0
LINE
  5
2BF
100
AcDbEntity
  8
0
390
0
  6
CONTINUOUS
 62
     3
100
AcDbLine
 10
-59.5
 20
78.0
 30
0.0
 11
66.0
 21
78.0
 31
0.0
  0
LINE
  5
2C0
100
AcDbEntity
  8
0
390
0
  6
CONTINUOUS
 62
     3
100
AcDbLine
 10
-56.5967
 20
108.0
 30
0.0
 11
56.7703
 21
108.0
 31
0.0
  0
LINE
  5
2C1
100
AcDbEntity
  8
0
390
0
  6
CENTER
 62
     7
100
AcDbLine
 10
0.0
 20
-137.90166
 30
0.0
 11
0.0
 21
123.02467
 31
0.0
  0
LINE
  5
2C2
100
AcDbEntity
  8
0
390
0
  6
CENTER
 62
     7
100
AcDbLine
 10
21.2463
 20
-174.42467
 30
0.0
 11
13.412
 21
-203.66267
 31
0.0
  0
ARC
  5
2C4
100
AcDbEntity
  8
0
390
0
  6
DASHED
 62
     7
100
AcDbCircle
 10
32.4657
 20
-194.37247
 30
0.0
 40
22.0
100
AcDbArc
 50
155.0001
 51
165.0
  0
ARC
  5
2C5
100
AcDbEntity
  8
0
390
0
  6
DASHED
 62
     7
100
AcDbCircle
 10
32.4657
 20
-194.37227
 30
0.0
 40
18.0
100
AcDbArc
 50
154.9998
 51
165.0002
  0
ARC
  5
2C6
100
AcDbEntity
  8
0
390
0
  6
DASHED
 62
     7
100
AcDbCircle
 10
32.4656
 20
-194.37267
 30
0.0
 40
14.0
100
AcDbArc
 50
155.0004
 51
165.0
  0
ARC
  5
2C7
100
AcDbEntity
  8
0
390
0
  6
DASHED
 62
     7
100
AcDbCircle
 10
32.4657
 20
-194.37247
 30
0.0
 40
10.0
100
AcDbArc
 50
155.0002
 51
164.9999
  0
LINE
  5
2C8
100
AcDbEntity
  8
0
390
0
  6
DASHED
 62
     7
100
AcDbLine
 10
26.735618
 20
-183.143952
 30
0.0
 11
26.7717
 21
-183.16347
 31
0.0
  0
LINE
  5
2C9
100
AcDbEntity
  8
0
390
0
  6
DASHED
 62
     7
100
AcDbLine
 10
26.633911
 20
-183.089222
 30
0.0
 11
26.735618
 21
-183.143952
 31
0.0
  0
LINE
  5
2CA
100
AcDbEntity
  8
0
390
0
  6
DASHED
 62
     7
100
AcDbLine
 10
26.47639
 20
-183.005022
 30
0.0
 11
26.633911
 21
-183.089222
 31
0.0
  0
LINE
  5
2CB
100
AcDbEntity
  8
0
390
0
  6
DASHED
 62
     7
100
AcDbLine
 10
26.272865
 20
-182.897089
 30
0.0
 11
26.47639
 21
-183.005022
 31
0.0
  0
LINE
  5
2CC
100
AcDbEntity
  8
0
390
0
  6
DASHED
 62
     7
100
AcDbLine
 10
26.033147
 20
-182.771164
 30
0.0
 11
26.272865
 21
-182.897089
 31
0.0
  0
LINE
  5
2CD
100
AcDbEntity
  8
0
390
0
  6
DASHED
 62
     7
100
AcDbLine
 10
25.767046
 20
-182.632985
 30
0.0
 11
26.033147
 21
-182.771164
 31
0.0
  0
LINE
  5
2CE
100
AcDbEntity
  8
0
390
0
  6
DASHED
 62
     7
100
AcDbLine
 10
25.484373
 20
-182.488292
 30
0.0
 11
25.767046
 21
-182.632985
 31
0.0
  0
LINE
  5
2CF
100
AcDbEntity
  8
0
390
0
  6
DASHED
 62
     7
100
AcDbLine
 10
25.194938
 20
-182.342824
 30
0.0
 11
25.484373
 21
-182.488292
 31
0.0
  0
LINE
  5
2D0
100
AcDbEntity
  8
0
390
0
  6
DASHED
 62
     7
100
AcDbLine
 10
24.908552
 20
-182.20232
 30
0.0
 11
25.194938
 21
-182.342824
 31
0.0
  0
LINE
  5
2D1
100
AcDbEntity
  8
0
390
0
  6
DASHED
 62
     7
100
AcDbLine
 10
24.635025
 20
-182.07252
 30
0.0
 11
24.908552
 21
-182.20232
 31
0.0
  0
LINE
  5
2D2
100
AcDbEntity
  8
0
390
0
  6
DASHED
 62
     7
100
AcDbLine
 10
24.382083
 20
-181.957913
 30
0.0
 11
24.635025
 21
-182.07252
 31
0.0
  0
LINE
  5
2D3
100
AcDbEntity
  8
0
390
0
  6
DASHED
 62
     7
100
AcDbLine
 10
24.149113
 20
-181.85799
 30
0.0
 11
24.382083
 21
-181.957913
 31
0.0
  0
LINE
  5
2D4
100
AcDbEntity
  8
0
390
0
  6
DASHED
 62
     7
100
AcDbLine
 10
23.933418
 20
-181.77099
 30
0.0
 11
24.149113
 21
-181.85799
 31
0.0
  0
LINE
  5
2D5
100
AcDbEntity
  8
0
390
0
  6
DASHED
 62
     7
100
AcDbLine
 10
23.732301
 20
-181.695155
 30
0.0
 11
23.933418
 21
-181.77099
 31
0.0
  0
LINE
  5
2D6
100
AcDbEntity
  8
0
390
0
  6
DASHED
 62
     7
100
AcDbLine
 10
23.543066
 20
-181.628724
 30
0.0
 11
23.732301
 21
-181.695155
 31
0.0
  0
LINE
  5
2D7
100
AcDbEntity
  8
0
390
0
  6
DASHED
 62
     7
100
AcDbLine
 10
23.363014
 20
-181.569938
 30
0.0
 11
23.543066
 21
-181.628724
 31
0.0
  0
LINE
  5
2D8
100
AcDbEntity
  8
0
390
0
  6
DASHED
 62
     7
100
AcDbLine
 10
23.189448
 20
-181.517038
 30
0.0
 11
23.363014
 21
-181.569938
 31
0.0
  0
LINE
  5
2D9
100
AcDbEntity
  8
0
390
0
  6
DASHED
 62
     7
100
AcDbLine
 10
23.019672
 20
-181.468263
 30
0.0
 11
23.189448
 21
-181.517038
 31
0.0
  0
LINE
  5
2DA
100
AcDbEntity
  8
0
390
0
  6
DASHED
 62
     7
100
AcDbLine
 10
22.850989
 20
-181.421855
 30
0.0
 11
23.019672
 21
-181.468263
 31
0.0
  0
LINE
  5
2DB
100
AcDbEntity
  8
0
390
0
  6
DASHED
 62
     7
100
AcDbLine
 10
22.6807
 20
-181.376053
 30
0.0
 11
22.850989
 21
-181.421855
 31
0.0
  0
LINE
  5
2DC
100
AcDbEntity
  8
0
390
0
  6
DASHED
 62
     7
100
AcDbLine
 10
20.85935
 20
-180.792003
 30
0.0
 11
22.6807
 21
-181.376053
 31
0.0
  0
LINE
  5
2DD
100
AcDbEntity
  8
0
390
0
  6
DASHED
 62
     7
100
AcDbLine
 10
20.679801
 20
-180.712209
 30
0.0
 11
20.85935
 21
-180.792003
 31
0.0
  0
LINE
  5
2DE
100
AcDbEntity
  8
0
390
0
  6
DASHED
 62
     7
100
AcDbLine
 10
20.503414
 20
-180.627502
 30
0.0
 11
20.679801
 21
-180.712209
 31
0.0
  0
LINE
  5
2DF
100
AcDbEntity
  8
0
390
0
  6
DASHED
 62
     7
100
AcDbLine
 10
20.330833
 20
-180.538053
 30
0.0
 11
20.503414
 21
-180.627502
 31
0.0
  0
LINE
  5
2E0
100
AcDbEntity
  8
0
390
0
  6
DASHED
 62
     7
100
AcDbLine
 10
20.162703
 20
-180.444037
 30
0.0
 11
20.330833
 21
-180.538053
 31
0.0
  0
LINE
  5
2E1
100
AcDbEntity
  8
0
390
0
  6
DASHED
 62
     7
100
AcDbLine
 10
19.999669
 20
-180.345626
 30
0.0
 11
20.162703
 21
-180.444037
 31
0.0
  0
LINE
  5
2E2
100
AcDbEntity
  8
0
390
0
  6
DASHED
 62
     7
100
AcDbLine
 10
19.842375
 20
-180.242993
 30
0.0
 11
19.999669
 21
-180.345626
 31
0.0
  0
LINE
  5
2E3
100
AcDbEntity
  8
0
390
0
  6
DASHED
 62
     7
100
AcDbLine
 10
19.691467
 20
-180.136309
 30
0.0
 11
19.842375
 21
-180.242993
 31
0.0
  0
LINE
  5
2E4
100
AcDbEntity
  8
0
390
0
  6
DASHED
 62
     7
100
AcDbLine
 10
19.547588
 20
-180.025748
 30
0.0
 11
19.691467
 21
-180.136309
 31
0.0
  0
LINE
  5
2E5
100
AcDbEntity
  8
0
390
0
  6
DASHED
 62
     7
100
AcDbLine
 10
19.411385
 20
-179.911483
 30
0.0
 11
19.547588
 21
-180.025748
 31
0.0
  0
LINE
  5
2E6
100
AcDbEntity
  8
0
390
0
  6
DASHED
 62
     7
100
AcDbLine
 10
19.2835
 20
-179.793687
 30
0.0
 11
19.411385
 21
-179.911483
 31
0.0
  0
LINE
  5
2E7
100
AcDbEntity
  8
0
390
0
  6
DASHED
 62
     7
100
AcDbLine
 10
19.164216
 20
-179.672491
 30
0.0
 11
19.2835
 21
-179.793687
 31
0.0
  0
LINE
  5
2E8
100
AcDbEntity
  8
0
390
0
  6
DASHED
 62
     7
100
AcDbLine
 10
19.052358
 20
-179.54787
 30
0.0
 11
19.164216
 21
-179.672491
 31
0.0
  0
LINE
  5
2E9
100
AcDbEntity
  8
0
390
0
  6
DASHED
 62
     7
100
AcDbLine
 10
18.946389
 20
-179.419758
 30
0.0
 11
19.052358
 21
-179.54787
 31
0.0
  0
LINE
  5
2EA
100
AcDbEntity
  8
0
390
0
  6
DASHED
 62
     7
100
AcDbLine
 10
18.844772
 20
-179.288089
 30
0.0
 11
18.946389
 21
-179.419758
 31
0.0
  0
LINE
  5
2EB
100
AcDbEntity
  8
0
390
0
  6
DASHED
 62
     7
100
AcDbLine
 10
18.745969
 20
-179.152796
 30
0.0
 11
18.844772
 21
-179.288089
 31
0.0
  0
LINE
  5
2EC
100
AcDbEntity
  8
0
390
0
  6
DASHED
 62
     7
100
AcDbLine
 10
18.648442
 20
-179.013813
 30
0.0
 11
18.745969
 21
-179.152796
 31
0.0
  0
LINE
  5
2ED
100
AcDbEntity
  8
0
390
0
  6
DASHED
 62
     7
100
AcDbLine
 10
18.550654
 20
-178.871075
 30
0.0
 11
18.648442
 21
-179.013813
 31
0.0
  0
LINE
  5
2EE
100
AcDbEntity
  8
0
390
0
  6
DASHED
 62
     7
100
AcDbLine
 10
18.451068
 20
-178.724514
 30
0.0
 11
18.550654
 21
-178.871075
 31
0.0
  0
LINE
  5
2EF
100
AcDbEntity
  8
0
390
0
  6
DASHED
 62
     7
100
AcDbLine
 10
18.348146
 20
-178.574065
 30
0.0
 11
18.451068
 21
-178.724514
 31
0.0
  0
LINE
  5
2F0
100
AcDbEntity
  8
0
390
0
  6
DASHED
 62
     7
100
AcDbLine
 10
18.24035
 20
-178.419662
 30
0.0
 11
18.348146
 21
-178.574065
 31
0.0
  0
LINE
  5
2F1
100
AcDbEntity
  8
0
390
0
  6
DASHED
 62
     7
100
AcDbLine
 10
18.125742
 20
-178.261802
 30
0.0
 11
18.24035
 21
-178.419662
 31
0.0
  0
LINE
  5
2F2
100
AcDbEntity
  8
0
390
0
  6
DASHED
 62
     7
100
AcDbLine
 10
18.00078
 20
-178.103243
 30
0.0
 11
18.125742
 21
-178.261802
 31
0.0
  0
LINE
  5
2F3
100
AcDbEntity
  8
0
390
0
  6
DASHED
 62
     7
100
AcDbLine
 10
17.86152
 20
-177.947305
 30
0.0
 11
18.00078
 21
-178.103243
 31
0.0
  0
LINE
  5
2F4
100
AcDbEntity
  8
0
390
0
  6
DASHED
 62
     7
100
AcDbLine
 10
17.704018
 20
-177.797309
 30
0.0
 11
17.86152
 21
-177.947305
 31
0.0
  0
LINE
  5
2F5
100
AcDbEntity
  8
0
390
0
  6
DASHED
 62
     7
100
AcDbLine
 10
17.524331
 20
-177.656575
 30
0.0
 11
17.704018
 21
-177.797309
 31
0.0
  0
LINE
  5
2F6
100
AcDbEntity
  8
0
390
0
  6
DASHED
 62
     7
100
AcDbLine
 10
17.318516
 20
-177.528425
 30
0.0
 11
17.524331
 21
-177.656575
 31
0.0
  0
LINE
  5
2F7
100
AcDbEntity
  8
0
390
0
  6
DASHED
 62
     7
100
AcDbLine
 10
17.082629
 20
-177.416178
 30
0.0
 11
17.318516
 21
-177.528425
 31
0.0
  0
LINE
  5
2F8
100
AcDbEntity
  8
0
390
0
  6
DASHED
 62
     7
100
AcDbLine
 10
16.812726
 20
-177.323156
 30
0.0
 11
17.082629
 21
-177.416178
 31
0.0
  0
LINE
  5
2F9
100
AcDbEntity
  8
0
390
0
  6
DASHED
 62
     7
100
AcDbLine
 10
16.504864
 20
-177.25268
 30
0.0
 11
16.812726
 21
-177.323156
 31
0.0
  0
LINE
  5
2FA
100
AcDbEntity
  8
0
390
0
  6
DASHED
 62
     7
100
AcDbLine
 10
16.1551
 20
-177.20807
 30
0.0
 11
16.504864
 21
-177.25268
 31
0.0
  0
LINE
  5
2FB
100
AcDbEntity
  8
0
390
0
  6
DASHED
 62
     7
100
AcDbLine
 10
16.18
 20
-177.24097
 30
0.0
 11
12.5269
 21
-185.07487
 31
0.0
  0
LINE
  5
2FC
100
AcDbEntity
  8
0
390
0
  6
DASHED
 62
     7
100
AcDbLine
 10
19.3418
 20
-179.92527
 30
0.0
 11
16.1523
 21
-186.76517
 31
0.0
  0
LINE
  5
2FD
100
AcDbEntity
  8
0
390
0
  6
DASHED
 62
     7
100
AcDbLine
 10
22.9994
 20
-181.54617
 30
0.0
 11
19.7773
 21
-188.45617
 31
0.0
  0
LINE
  5
2FE
100
AcDbEntity
  8
0
390
0
  6
DASHED
 62
     7
100
AcDbLine
 10
26.6953
 20
-183.08517
 30
0.0
 11
23.4026
 21
-190.14637
 31
0.0
  0
LINE
  5
2FF
100
AcDbEntity
  8
0
390
0
  6
DASHED
 62
     7
100
AcDbLine
 10
20.9623
 20
-198.66657
 30
0.0
 11
22.8064
 21
-191.78427
 31
0.0
  0
LINE
  5
300
100
AcDbEntity
  8
0
390
0
  6
DASHED
 62
     7
100
AcDbLine
 10
9.3712
 20
-195.56077
 30
0.0
 11
11.2153
 21
-188.67837
 31
0.0
  0
LINE
  5
301
100
AcDbEntity
  8
0
390
0
  6
DASHED
 62
     7
100
AcDbLine
 10
17.0986
 20
-197.63137
 30
0.0
 11
18.9427
 21
-190.74917
 31
0.0
  0
LINE
  5
302
100
AcDbEntity
  8
0
390
0
  6
DASHED
 62
     7
100
AcDbLine
 10
13.2349
 20
-196.59607
 30
0.0
 11
15.0791
 21
-189.71357
 31
0.0
  0
LINE
  5
303
100
AcDbEntity
  8
0
390
0
  6
DASHED
 62
     7
100
AcDbLine
 10
22.8942
 20
-199.18427
 30
0.0
 11
22.2295
 21
-201.66497
 31
0.0
  0
LINE
  5
304
100
AcDbEntity
  8
0
390
0
  6
DASHED
 62
     7
100
AcDbLine
 10
7.4394
 20
-195.04317
 30
0.0
 11
6.7747
 21
-197.52387
 31
0.0
  0
LINE
  5
305
100
AcDbEntity
  8
0
390
0
  6
DASHED
 62
     7
100
AcDbLine
 10
22.8942
 20
-199.18427
 30
0.0
 11
7.4394
 21
-195.04317
 31
0.0
  0
ARC
  5
306
100
AcDbEntity
  8
0
390
0
  6
DASHED
 62
     7
100
AcDbCircle
 10
0.0
 20
-253.71687
 30
0.0
 40
56.6
100
AcDbArc
 50
60.0
 51
90.0
  0
LINE
  5
307
100
AcDbEntity
  8
0
390
0
  6
CONTINUOUS
 62
     3
100
AcDbLine
 10
4.5
 20
-256.87927
 30
0.0
 11
4.5
 21
-250.55467
 31
0.0
  0
CIRCLE
  5
308
100
AcDbEntity
  8
0
390
0
  6
CONTINUOUS
 62
     3
100
AcDbCircle
 10
0.0
 20
-253.71687
 30
0.0
 40
5.5
  0
CIRCLE
  5
309
100
AcDbEntity
  8
0
390
0
  6
CONTINUOUS
 62
     3
100
AcDbCircle
 10
0.0
 20
-253.71687
 30
0.0
 40
7.5
  0
CIRCLE
  5
30A
100
AcDbEntity
  8
0
390
0
  6
CONTINUOUS
 62
     3
100
AcDbCircle
 10
45.962
 20
-299.67887
 30
0.0
 40
5.0
  0
CIRCLE
  5
30B
100
AcDbEntity
  8
0
390
0
  6
CONTINUOUS
 62
     3
100
AcDbCircle
 10
-45.9619
 20
-299.67897
 30
0.0
 40
5.0
  0
CIRCLE
  5
30C
100
AcDbEntity
  8
0
390
0
  6
CONTINUOUS
 62
     3
100
AcDbCircle
 10
-45.962
 20
-207.75497
 30
0.0
 40
5.0
  0
LINE
  5
30D
100
AcDbEntity
  8
0
390
0
  6
CENTER
 62
     7
100
AcDbLine
 10
38.3331
 20
-292.04987
 30
0.0
 11
53.955
 21
-307.67197
 31
0.0
  0
LINE
  5
30E
100
AcDbEntity
  8
0
390
0
  6
CENTER
 62
     7
100
AcDbLine
 10
-38.333
 20
-292.05007
 30
0.0
 11
-53.955
 21
-307.67197
 31
0.0
  0
LINE
  5
30F
100
AcDbEntity
  8
0
390
0
  6
CENTER
 62
     7
100
AcDbLine
 10
-38.3331
 20
-215.38387
 30
0.0
 11
-53.955
 21
-199.76187
 31
0.0
  0
ARC
  5
310
100
AcDbEntity
  8
0
390
0
  6
CENTER
 62
     7
100
AcDbCircle
 10
0.0
 20
-253.71687
 30
0.0
 40
65.0
100
AcDbArc
 50
305.0
 51
325.0
  0
ARC
  5
311
100
AcDbEntity
  8
0
390
0
  6
CENTER
 62
     7
100
AcDbCircle
 10
0.0
 20
-253.71687
 30
0.0
 40
65.0
100
AcDbArc
 50
215.0
 51
235.0
  0
ARC
  5
312
100
AcDbEntity
  8
0
390
0
  6
CENTER
 62
     7
100
AcDbCircle
 10
0.0
 20
-253.71687
 30
0.0
 40
65.0
100
AcDbArc
 50
125.0
 51
145.0
  0
CIRCLE
  5
313
100
AcDbEntity
  8
0
390
0
  6
CONTINUOUS
 62
     3
100
AcDbCircle
 10
45.9619
 20
-207.75497
 30
0.0
 40
5.0
  0
LINE
  5
314
100
AcDbEntity
  8
0
390
0
  6
CENTER
 62
     7
100
AcDbLine
 10
38.333
 20
-215.38387
 30
0.0
 11
53.955
 21
-199.76197
 31
0.0
  0
ARC
  5
315
100
AcDbEntity
  8
0
390
0
  6
CENTER
 62
     7
100
AcDbCircle
 10
0.0
 20
-253.71687
 30
0.0
 40
65.0
100
AcDbArc
 50
35.0
 51
55.0
  0
CIRCLE
  5
316
100
AcDbEntity
  8
0
390
0
  6
CONTINUOUS
 62
     3
100
AcDbCircle
 10
0.0
 20
-253.71687
 30
0.0
 40
51.0
  0
CIRCLE
  5
317
100
AcDbEntity
  8
0
390
0
  6
CONTINUOUS
 62
     3
100
AcDbCircle
 10
0.0
 20
-253.71687
 30
0.0
 40
55.0
  0
LINE
  5
318
100
AcDbEntity
  8
0
390
0
  6
CENTER
 62
     7
100
AcDbLine
 10
0.0
 20
-341.21697
 30
0.0
 11
0.0
 21
-166.21687
 31
0.0
  0
LINE
  5
319
100
AcDbEntity
  8
0
390
0
  6
CENTER
 62
     7
100
AcDbLine
 10
-87.5
 20
-253.71687
 30
0.0
 11
87.5
 21
-253.71687
 31
0.0
  0
ENDSEC
  0
SECTION
  2
OBJECTS
  0
DICTIONARY
  5
19
100
AcDbDictionary
280
     0
281
     1
  3
ACAD_GROUP
350
1A
  3
ACAD_MLINESTYLE
350
1B
  3
ACAD_LAYOUT
350
1E
  3
ACAD_PLOTSETTINGS
350
22
  3
ACAD_PLOTSTYLENAME
350
1F
  0
DICTIONARY
  5
1A
102
{ACAD_REACTORS
330
19
102
}
100
AcDbDictionary
280
     0
281
     1
  0
DICTIONARY
  5
1B
102
{ACAD_REACTORS
330
19
102
}
100
AcDbDictionary
280
     0
281
     1
  3
Standard
350
1C
  0
MLINESTYLE
  5
1C
102
{ACAD_REACTORS
330
1B
102
}
100
AcDbMlineStyle
  2
Standard
 70
     0
  3

 62
     0
 51
90.0
 52
90.0
 71
     2
 49
0.5
 62
   256
  6
ByLayer
 49
-0.5
 62
   256
  6
ByLayer
  0
ACDBDICTIONARYWDFLT
  5
1F
102
{ACAD_REACTORS
330
19
102
}
100
AcDbDictionary
281
     1
  3
Normal
350
1D
100
AcDbDictionaryWithDefault
340
1D
  0
ACDBPLACEHOLDER
  5
1D
102
{ACAD_REACTORS
330
1F
102
}
  0
LAYOUT
  5
20
102
{ACAD_REACTORS
330
1E
102
}
100
AcDbPlotSettings
  1

  2

  4

  6

 40
0.0
 41
0.0
 42
0.0
 43
0.0
 44
0.0
 45
0.0
 46
0.0
 47
0.0
 48
0.0
 49
0.0
140
0.0
141
0.0
142
1.0
143
1.0
 70
  1024
 72
     0
 73
     0
 74
     0
  7

 75
     0
147
1.0
148
0.0
149
0.0
100
AcDbLayout
  1
Model
 70
     0
 71
     0
 10
0.0
 20
0.0
 11
0.0
 21
0.0
 12
0.0
 22
0.0
 32
0.0
 14
0.0
 24
0.0
 34
0.0
 15
0.0
 25
0.0
 35
0.0
146
0.0
 13
0.0
 23
0.0
 33
0.0
 16
0.0
 26
0.0
 36
0.0
 17
0.0
 27
0.0
 37
0.0
 76
     0
330
A
331
0
345
0
346
0
  0
LAYOUT
  5
21
102
{ACAD_REACTORS
330
1E
102
}
100
AcDbPlotSettings
  1

  2

  4

  6

 40
0.0
 41
0.0
 42
0.0
 43
0.0
 44
0.0
 45
0.0
 46
0.0
 47
0.0
 48
0.0
 49
0.0
140
0.0
141
0.0
142
1.0
143
1.0
 70
     0
 72
     0
 73
     0
 74
     0
  7

 75
     0
147
1.0
148
0.0
149
0.0
100
AcDbLayout
  1
Layout1
 70
     0
 71
     0
 10
0.0
 20
0.0
 11
0.0
 21
0.0
 12
0.0
 22
0.0
 32
0.0
 14
0.0
 24
0.0
 34
0.0
 15
0.0
 25
0.0
 35
0.0
146
0.0
 13
0.0
 23
0.0
 33
0.0
 16
0.0
 26
0.0
 36
0.0
 17
0.0
 27
0.0
 37
0.0
 76
     0
330
B
331
0
345
0
346
0
  0
DICTIONARY
  5
1E
102
{ACAD_REACTORS
330
19
102
}
100
AcDbDictionary
280
     0
281
     1
  3
Layout1
350
21
  3
Model
350
20
  0
DICTIONARY
  5
22
102
{ACAD_REACTORS
330
19
102
}
100
AcDbDictionary
280
     0
281
     1
  0
ENDSEC
  0
EOF
